  0
SECTION
  2
HEADER
  9
$ACADVER
  1
AC1021
  9
$ACADMAINTVER
 70
    26
  9
$DWGCODEPAGE
  3
ANSI_932
  9
$LASTSAVEDBY
  1
nkoba
  9
$INSBASE
 10
0.0
 20
0.0
 30
0.0
  9
$EXTMIN
 10
6.325
 20
67.80264289299376
 30
0.0
  9
$EXTMAX
 10
156.562142486975
 20
279.3
 30
0.0
  9
$LIMMIN
 10
0.0
 20
0.0
  9
$LIMMAX
 10
199.0
 20
285.0
  9
$ORTHOMODE
 70
     0
  9
$REGENMODE
 70
     1
  9
$FILLMODE
 70
     1
  9
$QTEXTMODE
 70
     0
  9
$MIRRTEXT
 70
     1
  9
$LTSCALE
 40
1.0
  9
$ATTMODE
 70
     1
  9
$TEXTSIZE
 40
0.2
  9
$TRACEWID
 40
1.0
  9
$TEXTSTYLE
  7
BIGFONT
  9
$CLAYER
  8
0
  9
$CELTYPE
  6
BYLAYER
  9
$CECOLOR
 62
   256
  9
$CELTSCALE
 40
1.0
  9
$DISPSILH
 70
     0
  9
$DIMSCALE
 40
1.0
  9
$DIMASZ
 40
2.5
  9
$DIMEXO
 40
0.625
  9
$DIMDLI
 40
3.75
  9
$DIMRND
 40
0.0
  9
$DIMDLE
 40
0.0
  9
$DIMEXE
 40
1.25
  9
$DIMTP
 40
0.0
  9
$DIMTM
 40
0.0
  9
$DIMTXT
 40
2.5
  9
$DIMCEN
 40
2.5
  9
$DIMTSZ
 40
0.0
  9
$DIMTOL
 70
     0
  9
$DIMLIM
 70
     0
  9
$DIMTIH
 70
     0
  9
$DIMTOH
 70
     0
  9
$DIMSE1
 70
     0
  9
$DIMSE2
 70
     0
  9
$DIMTAD
 70
     1
  9
$DIMZIN
 70
     8
  9
$DIMBLK
  1

  9
$DIMASO
 70
     1
  9
$DIMSHO
 70
     1
  9
$DIMPOST
  1

  9
$DIMAPOST
  1

  9
$DIMALT
 70
     0
  9
$DIMALTD
 70
     4
  9
$DIMALTF
 40
0.0394
  9
$DIMLFAC
 40
1.0
  9
$DIMTOFL
 70
     1
  9
$DIMTVP
 40
0.0
  9
$DIMTIX
 70
     0
  9
$DIMSOXD
 70
     0
  9
$DIMSAH
 70
     0
  9
$DIMBLK1
  1

  9
$DIMBLK2
  1

  9
$DIMSTYLE
  2
STANDARD
  9
$DIMCLRD
 70
     0
  9
$DIMCLRE
 70
     0
  9
$DIMCLRT
 70
     0
  9
$DIMTFAC
 40
1.0
  9
$DIMGAP
 40
0.625
  9
$DIMJUST
 70
     0
  9
$DIMSD1
 70
     0
  9
$DIMSD2
 70
     0
  9
$DIMTOLJ
 70
     1
  9
$DIMTZIN
 70
     0
  9
$DIMALTZ
 70
     0
  9
$DIMALTTZ
 70
     0
  9
$DIMUPT
 70
     0
  9
$DIMDEC
 70
     4
  9
$DIMTDEC
 70
     4
  9
$DIMALTU
 70
     8
  9
$DIMALTTD
 70
     4
  9
$DIMTXSTY
  7
STANDARD
  9
$DIMAUNIT
 70
     0
  9
$DIMADEC
 70
     0
  9
$DIMALTRND
 40
0.0
  9
$DIMAZIN
 70
     0
  9
$DIMDSEP
 70
    46
  9
$DIMATFIT
 70
     3
  9
$DIMFRAC
 70
     0
  9
$DIMLDRBLK
  1

  9
$DIMLUNIT
 70
     2
  9
$DIMLWD
 70
    -2
  9
$DIMLWE
 70
    -2
  9
$DIMTMOVE
 70
     0
  9
$DIMFXL
 40
1.0
  9
$DIMFXLON
 70
     0
  9
$DIMJOGANG
 40
0.7853981633974483
  9
$DIMTFILL
 70
     0
  9
$DIMTFILLCLR
 70
     0
  9
$DIMARCSYM
 70
     0
  9
$DIMLTYPE
  6

  9
$DIMLTEX1
  6

  9
$DIMLTEX2
  6

  9
$LUNITS
 70
     2
  9
$LUPREC
 70
     4
  9
$SKETCHINC
 40
1.0
  9
$FILLETRAD
 40
10.0
  9
$AUNITS
 70
     0
  9
$AUPREC
 70
     0
  9
$MENU
  1
acad
  9
$ELEVATION
 40
0.0
  9
$PELEVATION
 40
0.0
  9
$THICKNESS
 40
0.0
  9
$LIMCHECK
 70
     0
  9
$CHAMFERA
 40
10.0
  9
$CHAMFERB
 40
10.0
  9
$CHAMFERC
 40
20.0
  9
$CHAMFERD
 40
0.0
  9
$SKPOLY
 70
     0
  9
$TDCREATE
 40
2447852.052997998
  9
$TDUCREATE
 40
2447851.677997998
  9
$TDUPDATE
 40
2457154.568349248
  9
$TDUUPDATE
 40
2457154.193349248
  9
$TDINDWG
 40
0.0096556713
  9
$TDUSRTIMER
 40
0.0096556713
  9
$USRTIMER
 70
     1
  9
$ANGBASE
 50
0.0
  9
$ANGDIR
 70
     0
  9
$PDMODE
 70
     0
  9
$PDSIZE
 40
0.0
  9
$PLINEWID
 40
0.0
  9
$SPLFRAME
 70
     0
  9
$SPLINETYPE
 70
     6
  9
$SPLINESEGS
 70
     8
  9
$HANDSEED
  5
100000B9
  9
$SURFTAB1
 70
     6
  9
$SURFTAB2
 70
     6
  9
$SURFTYPE
 70
     6
  9
$SURFU
 70
     6
  9
$SURFV
 70
     6
  9
$UCSBASE
  2

  9
$UCSNAME
  2

  9
$UCSORG
 10
0.0
 20
0.0
 30
0.0
  9
$UCSXDIR
 10
1.0
 20
0.0
 30
0.0
  9
$UCSYDIR
 10
0.0
 20
1.0
 30
0.0
  9
$UCSORTHOREF
  2

  9
$UCSORTHOVIEW
 70
     0
  9
$UCSORGTOP
 10
0.0
 20
0.0
 30
0.0
  9
$UCSORGBOTTOM
 10
0.0
 20
0.0
 30
0.0
  9
$UCSORGLEFT
 10
0.0
 20
0.0
 30
0.0
  9
$UCSORGRIGHT
 10
0.0
 20
0.0
 30
0.0
  9
$UCSORGFRONT
 10
0.0
 20
0.0
 30
0.0
  9
$UCSORGBACK
 10
0.0
 20
0.0
 30
0.0
  9
$PUCSBASE
  2

  9
$PUCSNAME
  2

  9
$PUCSORG
 10
0.0
 20
0.0
 30
0.0
  9
$PUCSXDIR
 10
1.0
 20
0.0
 30
0.0
  9
$PUCSYDIR
 10
0.0
 20
1.0
 30
0.0
  9
$PUCSORTHOREF
  2

  9
$PUCSORTHOVIEW
 70
     0
  9
$PUCSORGTOP
 10
0.0
 20
0.0
 30
0.0
  9
$PUCSORGBOTTOM
 10
0.0
 20
0.0
 30
0.0
  9
$PUCSORGLEFT
 10
0.0
 20
0.0
 30
0.0
  9
$PUCSORGRIGHT
 10
0.0
 20
0.0
 30
0.0
  9
$PUCSORGFRONT
 10
0.0
 20
0.0
 30
0.0
  9
$PUCSORGBACK
 10
0.0
 20
0.0
 30
0.0
  9
$USERI1
 70
     0
  9
$USERI2
 70
     0
  9
$USERI3
 70
     0
  9
$USERI4
 70
     0
  9
$USERI5
 70
     0
  9
$USERR1
 40
0.0
  9
$USERR2
 40
0.0
  9
$USERR3
 40
0.0
  9
$USERR4
 40
0.0
  9
$USERR5
 40
0.0
  9
$WORLDVIEW
 70
     1
  9
$SHADEDGE
 70
     3
  9
$SHADEDIF
 70
    70
  9
$TILEMODE
 70
     1
  9
$MAXACTVP
 70
    48
  9
$PINSBASE
 10
0.0
 20
0.0
 30
0.0
  9
$PLIMCHECK
 70
     0
  9
$PEXTMIN
 10
1.000000000000000E+20
 20
1.000000000000000E+20
 30
1.000000000000000E+20
  9
$PEXTMAX
 10
-1.000000000000000E+20
 20
-1.000000000000000E+20
 30
-1.000000000000000E+20
  9
$PLIMMIN
 10
0.0
 20
0.0
  9
$PLIMMAX
 10
199.0
 20
285.0
  9
$UNITMODE
 70
     0
  9
$VISRETAIN
 70
     1
  9
$PLINEGEN
 70
     0
  9
$PSLTSCALE
 70
     1
  9
$TREEDEPTH
 70
  3020
  9
$CMLSTYLE
  2
Standard
  9
$CMLJUST
 70
     0
  9
$CMLSCALE
 40
20.0
  9
$PROXYGRAPHICS
 70
     1
  9
$MEASUREMENT
 70
     1
  9
$CELWEIGHT
370
    -1
  9
$ENDCAPS
280
     0
  9
$JOINSTYLE
280
     0
  9
$LWDISPLAY
290
     1
  9
$INSUNITS
 70
     0
  9
$HYPERLINKBASE
  1

  9
$STYLESHEET
  1

  9
$XEDIT
290
     1
  9
$CEPSNTYPE
380
     0
  9
$PSTYLEMODE
290
     1
  9
$FINGERPRINTGUID
  2
{01801163-5BC0-459E-B9C7-2188C09ED432}
  9
$VERSIONGUID
  2
{A7EC71FD-004B-4B0B-AFD6-157E5156520E}
  9
$EXTNAMES
290
     1
  9
$PSVPSCALE
 40
0.0
  9
$OLESTARTUP
290
     0
  9
$SORTENTS
280
   127
  9
$INDEXCTL
280
     0
  9
$HIDETEXT
280
     1
  9
$XCLIPFRAME
290
     0
  9
$HALOGAP
280
     0
  9
$OBSCOLOR
 70
   257
  9
$OBSLTYPE
280
     0
  9
$INTERSECTIONDISPLAY
280
     0
  9
$INTERSECTIONCOLOR
 70
   257
  9
$DIMASSOC
280
     2
  9
$PROJECTNAME
  1

  9
$CAMERADISPLAY
290
     0
  9
$LENSLENGTH
 40
50.0
  9
$CAMERAHEIGHT
 40
0.0
  9
$STEPSPERSEC
 40
2.0
  9
$STEPSIZE
 40
6.0
  9
$3DDWFPREC
 40
2.0
  9
$PSOLWIDTH
 40
0.25
  9
$PSOLHEIGHT
 40
4.0
  9
$LOFTANG1
 40
1.570796326794896
  9
$LOFTANG2
 40
1.570796326794896
  9
$LOFTMAG1
 40
0.0
  9
$LOFTMAG2
 40
0.0
  9
$LOFTPARAM
 70
     7
  9
$LOFTNORMALS
280
     1
  9
$LATITUDE
 40
37.795
  9
$LONGITUDE
 40
-122.394
  9
$NORTHDIRECTION
 40
0.0
  9
$TIMEZONE
 70
 -8000
  9
$LIGHTGLYPHDISPLAY
280
     1
  9
$TILEMODELIGHTSYNCH
280
     1
  9
$CMATERIAL
347
10000003
  9
$SOLIDHIST
280
     1
  9
$SHOWHIST
280
     1
  9
$DWFFRAME
280
     2
  9
$DGNFRAME
280
     0
  9
$REALWORLDSCALE
290
     1
  9
$INTERFERECOLOR
 62
     1
  9
$INTERFEREOBJVS
345
10000025
  9
$INTERFEREVPVS
346
10000022
  9
$CSHADOW
280
     0
  9
$SHADOWPLANELOCATION
 40
0.0
  0
ENDSEC
  0
SECTION
  2
CLASSES
  0
CLASS
  1
ACDBDICTIONARYWDFLT
  2
AcDbDictionaryWithDefault
  3
ObjectDBX Classes
 90
        0
 91
        2
280
     0
281
     0
  0
CLASS
  1
MATERIAL
  2
AcDbMaterial
  3
ObjectDBX Classes
 90
     1153
 91
        3
280
     0
281
     0
  0
CLASS
  1
VISUALSTYLE
  2
AcDbVisualStyle
  3
ObjectDBX Classes
 90
     4095
 91
       16
280
     0
281
     0
  0
CLASS
  1
TABLESTYLE
  2
AcDbTableStyle
  3
ObjectDBX Classes
 90
     4095
 91
        1
280
     0
281
     0
  0
CLASS
  1
SCALE
  2
AcDbScale
  3
ObjectDBX Classes
 90
     1153
 91
       33
280
     0
281
     0
  0
CLASS
  1
MLEADERSTYLE
  2
AcDbMLeaderStyle
  3
ACDB_MLEADERSTYLE_CLASS
 90
     4095
 91
        1
280
     0
281
     0
  0
CLASS
  1
CELLSTYLEMAP
  2
AcDbCellStyleMap
  3
ObjectDBX Classes
 90
     1152
 91
        7
280
     0
281
     0
  0
CLASS
  1
DICTIONARYVAR
  2
AcDbDictionaryVar
  3
ObjectDBX Classes
 90
        0
 91
       30
280
     0
281
     0
  0
ENDSEC
  0
SECTION
  2
TABLES
  0
TABLE
  2
VPORT
  5
A2
330
0
100
AcDbSymbolTable
 70
     1
  0
VPORT
  5
A5
330
A2
100
AcDbSymbolTableRecord
100
AcDbViewportTableRecord
  2
*ACTIVE
 70
     0
 10
0.0
 20
0.0
 11
1.0
 21
1.0
 12
145.7927959214847
 22
196.5593355876365
 13
0.0
 23
0.0
 14
10.0
 24
10.0
 15
10.0
 25
10.0
 16
0.0
 26
0.0
 36
1.0
 17
0.0
 27
0.0
 37
0.0
 40
271.614868687569
 41
1.608050847457627
 42
50.0
 43
0.0
 44
0.0
 50
0.0
 51
0.0
 71
     0
 72
   100
 73
     1
 74
     1
 75
     0
 76
     0
 77
     0
 78
     0
281
     0
 65
     1
110
0.0
120
0.0
130
0.0
111
1.0
121
0.0
131
0.0
112
0.0
122
1.0
132
0.0
 79
     0
146
0.0
348
10000021
 60
     3
 61
     5
292
     1
282
     1
141
0.0
142
0.0
 63
   250
421
  3355443
  0
ENDTAB
  0
TABLE
  2
LTYPE
  5
A8
330
0
100
AcDbSymbolTable
 70
    10
  0
LTYPE
  5
AB
330
A8
100
AcDbSymbolTableRecord
100
AcDbLinetypeTableRecord
  2
BYBLOCK
 70
     0
  3
BYBLOCK
 72
    65
 73
     0
 40
0.0
  0
LTYPE
  5
AE
330
A8
100
AcDbSymbolTableRecord
100
AcDbLinetypeTableRecord
  2
BYLAYER
 70
     0
  3
BYLAYER
 72
    65
 73
     0
 40
0.0
  0
LTYPE
  5
B1
330
A8
100
AcDbSymbolTableRecord
100
AcDbLinetypeTableRecord
  2
CONTINUOUS
 70
     0
  3
実線
 72
    65
 73
     0
 40
0.0
  0
LTYPE
  5
B4
330
A8
100
AcDbSymbolTableRecord
100
AcDbLinetypeTableRecord
  2
DASHED
 70
     0
  3
__ __ __ __ __ __ __ __ __ __ __ __ __ __ __
 72
    65
 73
     2
 40
0.75
 49
0.5
 74
     0
 49
-0.25
 74
     0
  0
LTYPE
  5
B7
330
A8
100
AcDbSymbolTableRecord
100
AcDbLinetypeTableRecord
  2
HIDDEN
 70
     0
  3
_ _ _ _ _ _ _ _ _ _ _ _ _ _ _ _ _ _ _ _ _ _ _
 72
    65
 73
     2
 40
0.375
 49
0.25
 74
     0
 49
-0.125
 74
     0
  0
LTYPE
  5
BA
330
A8
100
AcDbSymbolTableRecord
100
AcDbLinetypeTableRecord
  2
CENTER
 70
     0
  3
____ _ ____ _ ____ _ ____ _ ____ _ ____ _ ____
 72
    65
 73
     4
 40
2.0
 49
1.25
 74
     0
 49
-0.25
 74
     0
 49
0.25
 74
     0
 49
-0.25
 74
     0
  0
LTYPE
  5
BD
330
A8
100
AcDbSymbolTableRecord
100
AcDbLinetypeTableRecord
  2
PHANTOM
 70
     0
  3
_____ _ _ _____ _ _ _____ _ _ _____ _ _ ____
 72
    65
 73
     6
 40
2.5
 49
1.25
 74
     0
 49
-0.25
 74
     0
 49
0.25
 74
     0
 49
-0.25
 74
     0
 49
0.25
 74
     0
 49
-0.25
 74
     0
  0
LTYPE
  5
C0
330
A8
100
AcDbSymbolTableRecord
100
AcDbLinetypeTableRecord
  2
DOT
 70
     0
  3
...............................................
 72
    65
 73
     2
 40
0.25
 49
0.0
 74
     0
 49
-0.25
 74
     0
  0
LTYPE
  5
C3
330
A8
100
AcDbSymbolTableRecord
100
AcDbLinetypeTableRecord
  2
DASHDOT
 70
     0
  3
__ . __ . __ . __ . __ . __ . __ . __ . __ . __
 72
    65
 73
     4
 40
1.0
 49
0.5
 74
     0
 49
-0.25
 74
     0
 49
0.0
 74
     0
 49
-0.25
 74
     0
  0
LTYPE
  5
C6
330
A8
100
AcDbSymbolTableRecord
100
AcDbLinetypeTableRecord
  2
BORDER
 70
     0
  3
__ __ . __ __ . __ __ . __ __ . __ __ . __ __
 72
    65
 73
     6
 40
1.75
 49
0.5
 74
     0
 49
-0.25
 74
     0
 49
0.5
 74
     0
 49
-0.25
 74
     0
 49
0.0
 74
     0
 49
-0.25
 74
     0
  0
LTYPE
  5
C9
330
A8
100
AcDbSymbolTableRecord
100
AcDbLinetypeTableRecord
  2
DIVIDE
 70
     0
  3
__ . . __ . . __ . . __ . . __ . . __ . . __
 72
    65
 73
     6
 40
1.25
 49
0.5
 74
     0
 49
-0.25
 74
     0
 49
0.0
 74
     0
 49
-0.25
 74
     0
 49
0.0
 74
     0
 49
-0.25
 74
     0
  0
ENDTAB
  0
TABLE
  2
LAYER
  5
CC
330
0
100
AcDbSymbolTable
 70
    14
  0
LAYER
  5
CF
102
{ACAD_XDICTIONARY
360
1000005D
102
}
330
CC
100
AcDbSymbolTableRecord
100
AcDbLayerTableRecord
  2
0
 70
     0
 62
     7
  6
CONTINUOUS
370
    -3
390
10000002
347
10000013
  0
LAYER
  5
D2
102
{ACAD_XDICTIONARY
360
1000005F
102
}
330
CC
100
AcDbSymbolTableRecord
100
AcDbLayerTableRecord
  2
B
 70
     0
 62
     7
  6
CONTINUOUS
370
    -3
390
10000002
347
10000013
  0
LAYER
  5
D5
102
{ACAD_XDICTIONARY
360
10000061
102
}
330
CC
100
AcDbSymbolTableRecord
100
AcDbLayerTableRecord
  2
C
 70
     0
 62
     7
  6
CONTINUOUS
370
    -3
390
10000002
347
10000013
  0
LAYER
  5
D8
102
{ACAD_XDICTIONARY
360
10000063
102
}
330
CC
100
AcDbSymbolTableRecord
100
AcDbLayerTableRecord
  2
D
 70
     0
 62
     7
  6
CONTINUOUS
370
    -3
390
10000002
347
10000013
  0
LAYER
  5
DB
102
{ACAD_XDICTIONARY
360
10000065
102
}
330
CC
100
AcDbSymbolTableRecord
100
AcDbLayerTableRecord
  2
E
 70
     0
 62
     7
  6
CONTINUOUS
370
    -3
390
10000002
347
10000013
  0
LAYER
  5
DE
102
{ACAD_XDICTIONARY
360
10000067
102
}
330
CC
100
AcDbSymbolTableRecord
100
AcDbLayerTableRecord
  2
F
 70
     0
 62
     7
  6
CONTINUOUS
370
    -3
390
10000002
347
10000013
  0
LAYER
  5
E1
102
{ACAD_XDICTIONARY
360
10000069
102
}
330
CC
100
AcDbSymbolTableRecord
100
AcDbLayerTableRecord
  2
G
 70
     0
 62
     7
  6
CONTINUOUS
370
    -3
390
10000002
347
10000013
  0
LAYER
  5
E4
102
{ACAD_XDICTIONARY
360
1000006B
102
}
330
CC
100
AcDbSymbolTableRecord
100
AcDbLayerTableRecord
  2
H
 70
     0
 62
     7
  6
CONTINUOUS
370
    -3
390
10000002
347
10000013
  0
LAYER
  5
E7
102
{ACAD_XDICTIONARY
360
1000006D
102
}
330
CC
100
AcDbSymbolTableRecord
100
AcDbLayerTableRecord
  2
I
 70
     0
 62
     7
  6
CONTINUOUS
370
    -3
390
10000002
347
10000013
  0
LAYER
  5
EA
102
{ACAD_XDICTIONARY
360
1000006F
102
}
330
CC
100
AcDbSymbolTableRecord
100
AcDbLayerTableRecord
  2
J
 70
     0
 62
     7
  6
CONTINUOUS
370
    -3
390
10000002
347
10000013
  0
LAYER
  5
ED
102
{ACAD_XDICTIONARY
360
10000071
102
}
330
CC
100
AcDbSymbolTableRecord
100
AcDbLayerTableRecord
  2
K
 70
     0
 62
     7
  6
CONTINUOUS
370
    -3
390
10000002
347
10000013
  0
LAYER
  5
F0
102
{ACAD_XDICTIONARY
360
10000073
102
}
330
CC
100
AcDbSymbolTableRecord
100
AcDbLayerTableRecord
  2
L
 70
     0
 62
     7
  6
CONTINUOUS
370
    -3
390
10000002
347
10000013
  0
LAYER
  5
F3
102
{ACAD_XDICTIONARY
360
10000075
102
}
330
CC
100
AcDbSymbolTableRecord
100
AcDbLayerTableRecord
  2
M
 70
     0
 62
     7
  6
CONTINUOUS
370
    -3
390
10000002
347
10000013
  0
LAYER
  5
F6
102
{ACAD_XDICTIONARY
360
10000077
102
}
330
CC
100
AcDbSymbolTableRecord
100
AcDbLayerTableRecord
  2
N
 70
     0
 62
     7
  6
CONTINUOUS
370
    -3
390
10000002
347
10000013
  0
ENDTAB
  0
TABLE
  2
STYLE
  5
F9
330
0
100
AcDbSymbolTable
 70
     2
  0
STYLE
  5
FC
330
F9
100
AcDbSymbolTableRecord
100
AcDbTextStyleTableRecord
  2
STANDARD
 70
     0
 40
0.0
 41
0.5
 50
0.0
 71
     0
 42
0.3
  3
txt
  4

  0
STYLE
  5
FF
330
F9
100
AcDbSymbolTableRecord
100
AcDbTextStyleTableRecord
  2
BIGFONT
 70
     0
 40
0.0
 41
1.0
 50
0.0
 71
     0
 42
0.2
  3

  4
bigfont
  0
ENDTAB
  0
TABLE
  2
VIEW
  5
102
330
0
100
AcDbSymbolTable
 70
     0
  0
ENDTAB
  0
TABLE
  2
UCS
  5
105
330
0
100
AcDbSymbolTable
 70
     0
  0
ENDTAB
  0
TABLE
  2
APPID
  5
108
330
0
100
AcDbSymbolTable
 70
     5
  0
APPID
  5
10B
330
108
100
AcDbSymbolTableRecord
100
AcDbRegAppTableRecord
  2
ACAD
 70
     0
  0
APPID
  5
10E
330
108
100
AcDbSymbolTableRecord
100
AcDbRegAppTableRecord
  2
CONTENTTABDATA
 70
     0
  0
APPID
  5
111
330
108
100
AcDbSymbolTableRecord
100
AcDbRegAppTableRecord
  2
CONTENTCURRENTTAB
 70
     0
  0
APPID
  5
10000052
330
108
100
AcDbSymbolTableRecord
100
AcDbRegAppTableRecord
  2
ACAD_MLEADERVER
 70
     0
  0
APPID
  5
10000095
330
108
100
AcDbSymbolTableRecord
100
AcDbRegAppTableRecord
  2
ACAD_EXEMPT_FROM_CAD_STANDARDS
 70
     0
  0
ENDTAB
  0
TABLE
  2
DIMSTYLE
  5
114
330
0
100
AcDbSymbolTable
 70
     2
100
AcDbDimStyleTable
 71
     1
340
117
  0
DIMSTYLE
105
117
330
114
100
AcDbSymbolTableRecord
100
AcDbDimStyleTableRecord
  2
STANDARD
 70
     0
340
FC
  0
ENDTAB
  0
TABLE
  2
BLOCK_RECORD
  5
11A
330
0
100
AcDbSymbolTable
 70
     1
  0
BLOCK_RECORD
  5
11D
330
11A
100
AcDbSymbolTableRecord
100
AcDbBlockTableRecord
  2
*MODEL_SPACE
340
10000054
 70
     0
280
     1
281
     0
  0
BLOCK_RECORD
  5
120
330
11A
100
AcDbSymbolTableRecord
100
AcDbBlockTableRecord
  2
*PAPER_SPACE
340
10000055
 70
     0
280
     1
281
     0
  0
ENDTAB
  0
ENDSEC
  0
SECTION
  2
BLOCKS
  0
BLOCK
  5
123
330
11D
100
AcDbEntity
  8
0
100
AcDbBlockBegin
  2
*MODEL_SPACE
 70
     0
 10
0.0
 20
0.0
 30
0.0
  3
*MODEL_SPACE
  1
 
  0
ENDBLK
  5
126
330
11D
100
AcDbEntity
  8
0
100
AcDbBlockEnd
  0
BLOCK
  5
129
330
120
100
AcDbEntity
 67
     1
  8
0
100
AcDbBlockBegin
  2
*PAPER_SPACE
 70
     0
 10
0.0
 20
0.0
 30
0.0
  3
*PAPER_SPACE
  1
 
  0
ENDBLK
  5
12C
330
120
100
AcDbEntity
 67
     1
  8
0
100
AcDbBlockEnd
  0
ENDSEC
  0
SECTION
  2
ENTITIES
  0
LWPOLYLINE
  5
12F
330
11D
100
AcDbEntity
  8
0
100
AcDbPolyline
 90
        4
 70
     1
 43
0.0
 10
79.175
 20
278.075
 10
79.175
 20
276.85
 10
85.29999999999999
 20
276.85
 10
85.29999999999999
 20
278.075
  0
LWPOLYLINE
  5
13A
330
11D
100
AcDbEntity
  8
0
100
AcDbPolyline
 90
        4
 70
     1
 43
0.0
 10
80.02500000000001
 20
243.7
 10
80.02500000000001
 20
238.8
 10
84.075
 20
238.8
 10
84.075
 20
243.7
  0
LWPOLYLINE
  5
145
330
11D
100
AcDbEntity
  8
0
100
AcDbPolyline
 90
        4
 70
     1
 43
0.0
 10
80.4
 20
238.8
 10
80.4
 20
237.575
 10
83.7
 20
237.575
 10
83.7
 20
238.8
  0
LWPOLYLINE
  5
150
330
11D
100
AcDbEntity
  8
0
100
AcDbPolyline
 90
        4
 70
     1
 43
0.0
 10
80.82500000000001
 20
243.7
 10
80.82500000000001
 20
244.925
 10
83.275
 20
244.925
 10
83.275
 20
243.7
  0
LINE
  5
15B
330
11D
100
AcDbEntity
  8
0
370
    20
100
AcDbLine
 10
68.125
 20
250.65
 30
0.0
 11
79.175
 21
276.85
 31
0.0
  0
LINE
  5
15E
330
11D
100
AcDbEntity
  8
0
370
    20
100
AcDbLine
 10
80.4
 20
276.85
 30
0.0
 11
69.375
 21
250.25
 31
0.0
  0
LINE
  5
161
330
11D
100
AcDbEntity
  8
0
370
    20
100
AcDbLine
 10
93.925
 20
250.25
 30
0.0
 11
84.075
 21
276.85
 31
0.0
  0
LINE
  5
164
330
11D
100
AcDbEntity
  8
0
370
    20
100
AcDbLine
 10
85.29999999999999
 20
276.85
 30
0.0
 11
94.725
 21
251.05
 31
0.0
  0
ELLIPSE
  5
167
330
11D
100
AcDbEntity
  8
0
370
    40
100
AcDbEllipse
 10
82.05
 20
270.3
 30
0.0
 11
0.0
 21
2.45
 31
0.0
210
0.0
220
0.0
230
1.0
 40
0.663265
 41
0.0
 42
6.283184999999999
  0
LWPOLYLINE
  5
16A
330
11D
100
AcDbEntity
  8
0
100
AcDbPolyline
 90
        4
 70
     1
 43
0.0
 10
82.475
 20
264.175
 10
82.475
 20
260.475
 10
84.50000000000001
 20
260.475
 10
84.50000000000001
 20
264.175
  0
HATCH
  5
175
330
11D
100
AcDbEntity
  8
0
100
AcDbHatch
 10
0.0
 20
0.0
 30
0.0
210
0.0
220
0.0
230
1.0
  2
ANSI31
 70
     0
 71
     0
 91
        1
 92
        7
 72
     0
 73
     1
 93
        4
 10
82.85
 20
260.475
 10
82.85
 20
256.8
 10
84.075
 20
256.8
 10
84.075
 20
260.475
 97
        1
330
178
 75
     0
 76
     1
 52
330.0
 41
0.2
 77
     0
 78
     1
 53
14.99999999999995
 43
0.0
 44
0.0
 45
-0.1643500936401003
 46
0.6133628996935584
 79
     0
 47
0.651316
 98
        1
 10
0.0
 20
0.0
  0
LWPOLYLINE
  5
178
330
11D
100
AcDbEntity
  8
0
100
AcDbPolyline
 90
        4
 70
     1
 43
0.0
 10
82.85
 20
260.475
 10
82.85
 20
256.8
 10
84.075
 20
256.8
 10
84.075
 20
260.475
  0
LWPOLYLINE
  5
183
330
11D
100
AcDbEntity
  8
0
100
AcDbPolyline
 90
        4
 70
     1
 43
0.0
 10
82.85
 20
260.475
 10
82.85
 20
256.8
 10
84.075
 20
256.8
 10
84.075
 20
260.475
  0
LWPOLYLINE
  5
18E
330
11D
100
AcDbEntity
  8
0
100
AcDbPolyline
 90
        4
 70
     1
 43
0.0
 10
79.175
 20
220.775
 10
79.175
 20
212.2
 10
84.92499999999999
 20
212.2
 10
84.92499999999999
 20
220.775
  0
LWPOLYLINE
  5
199
330
11D
100
AcDbEntity
  8
0
100
AcDbPolyline
 90
        4
 70
     1
 43
0.0
 10
84.50000000000001
 20
212.2
 10
84.50000000000001
 20
204.0
 10
79.59999999999999
 20
204.0
 10
79.59999999999999
 20
212.2
  0
LWPOLYLINE
  5
1A4
330
11D
100
AcDbEntity
  8
0
100
AcDbPolyline
 90
        4
 70
     1
 43
0.0
 10
80.4
 20
204.0
 10
80.4
 20
197.45
 10
83.7
 20
197.45
 10
83.7
 20
204.0
  0
LWPOLYLINE
  5
1AF
330
11D
100
AcDbEntity
  8
0
100
AcDbPolyline
 90
        4
 70
     1
 43
0.0
 10
84.075
 20
197.45
 10
84.075
 20
196.225
 10
80.02500000000001
 20
196.225
 10
80.02500000000001
 20
197.45
  0
LWPOLYLINE
  5
1BA
330
11D
100
AcDbEntity
  8
0
100
AcDbPolyline
 90
        4
 70
     1
 43
0.0
 10
79.175
 20
196.225
 10
79.175
 20
193.35
 10
84.92499999999999
 20
193.35
 10
84.92499999999999
 20
196.225
  0
LWPOLYLINE
  5
1C5
330
11D
100
AcDbEntity
  8
0
100
AcDbPolyline
 90
        4
 70
     1
 43
0.0
 10
77.15
 20
189.25
 10
77.15
 20
185.575
 10
19.025
 20
185.575
 10
19.025
 20
189.25
  0
LWPOLYLINE
  5
1D0
330
11D
100
AcDbEntity
  8
0
100
AcDbPolyline
 90
        4
 70
     1
 43
0.0
 10
76.72499999999999
 20
221.175
 10
76.72499999999999
 20
207.675
 10
56.25
 20
207.675
 10
56.25
 20
221.175
  0
LWPOLYLINE
  5
1DB
330
11D
100
AcDbEntity
  8
0
100
AcDbPolyline
 90
        4
 70
     1
 43
0.0
 10
44.375
 20
204.0
 10
44.375
 20
202.775
 10
50.125
 20
202.775
 10
50.125
 20
204.0
  0
LWPOLYLINE
  5
1E6
330
11D
100
AcDbEntity
  8
0
100
AcDbPolyline
 90
        4
 70
     1
 43
0.0
 10
76.72499999999999
 20
203.2
 10
76.72499999999999
 20
189.25
 10
72.2
 20
189.25
 10
72.2
 20
203.2
  0
LWPOLYLINE
  5
1F1
330
11D
100
AcDbEntity
  8
0
100
AcDbPolyline
 90
        4
 70
     1
 43
0.0
 10
45.22499999999999
 20
221.175
 10
45.22499999999999
 20
204.0
 10
50.125
 20
204.0
 10
50.125
 20
221.175
  0
LWPOLYLINE
  5
1FC
330
11D
100
AcDbEntity
  8
0
100
AcDbPolyline
 90
        4
 70
     1
 43
0.0
 10
50.125
 20
216.7
 10
50.125
 20
212.2
 10
52.175
 20
212.2
 10
52.175
 20
216.7
  0
LWPOLYLINE
  5
207
330
11D
100
AcDbEntity
  8
0
100
AcDbPolyline
 90
        4
 70
     1
 43
0.0
 10
50.125
 20
207.675
 10
50.125
 20
203.2
 10
76.72499999999999
 20
203.2
 10
76.72499999999999
 20
207.675
  0
LWPOLYLINE
  5
212
330
11D
100
AcDbEntity
  8
0
100
AcDbPolyline
 90
        4
 70
     1
 43
0.0
 10
43.15
 20
189.25
 10
43.15
 20
217.1
 10
23.125
 20
217.1
 10
23.125
 20
189.25
  0
LWPOLYLINE
  5
21D
330
11D
100
AcDbEntity
  8
0
100
AcDbPolyline
 90
        4
 70
     1
 43
0.0
 10
78.75
 20
221.6
 10
78.75
 20
220.775
 10
85.29999999999999
 20
220.775
 10
85.29999999999999
 20
221.6
  0
LWPOLYLINE
  5
228
330
11D
100
AcDbEntity
  8
0
100
AcDbPolyline
 90
        4
 70
     1
 43
0.0
 10
79.78750000000001
 20
222.825
 10
79.78750000000001
 20
221.6
 10
84.26250000000001
 20
221.6
 10
84.26250000000001
 20
222.825
  0
LWPOLYLINE
  5
233
330
11D
100
AcDbEntity
  8
0
100
AcDbPolyline
 90
        4
 70
     1
 43
0.0
 10
81.03750000000001
 20
237.575
 10
81.03750000000001
 20
222.825
 10
83.06250000000002
 20
222.825
 10
83.06250000000002
 20
237.575
  0
ELLIPSE
  5
23E
330
11D
100
AcDbEntity
  8
0
370
    20
100
AcDbEllipse
 10
56.25
 20
214.65
 30
0.0
 11
0.0
 21
6.549999999999999
 31
0.0
210
0.0
220
0.0
230
1.0
 40
0.622137
 41
6.277048999999999
 42
9.430914307179586
  0
ELLIPSE
  5
241
330
11D
100
AcDbEntity
  8
0
370
    20
100
AcDbEllipse
 10
59.125
 20
227.725
 30
0.0
 11
0.0
 21
6.549999999999999
 31
0.0
210
0.0
220
0.0
230
1.0
 40
0.622137
 41
6.277048999999999
 42
9.430914307179586
  0
LWPOLYLINE
  5
244
330
11D
100
AcDbEntity
  8
0
100
AcDbPolyline
 90
        4
 70
     1
 43
0.0
 10
76.72499999999999
 20
220.775
 10
76.72499999999999
 20
211.775
 10
78.375
 20
211.775
 10
78.375
 20
220.775
  0
LWPOLYLINE
  5
24F
330
11D
100
AcDbEntity
  8
0
100
AcDbPolyline
 90
        4
 70
     1
 43
0.0
 10
62.4
 20
230.175
 10
62.4
 20
225.7
 10
68.525
 20
225.7
 10
68.525
 20
230.175
  0
LWPOLYLINE
  5
25A
330
11D
100
AcDbEntity
  8
0
100
AcDbPolyline
 90
        4
 70
     1
 43
0.0
 10
71.4
 20
229.8
 10
71.4
 20
226.5
 10
73.425
 20
226.5
 10
73.425
 20
229.8
  0
LINE
  5
265
330
11D
100
AcDbEntity
  8
0
370
    20
100
AcDbLine
 10
59.125
 20
234.275
 30
0.0
 11
59.125
 21
221.175
 31
0.0
  0
LINE
  5
268
330
11D
100
AcDbEntity
  8
0
370
    20
100
AcDbLine
 10
78.375
 20
219.95
 30
0.0
 11
79.175
 21
219.95
 31
0.0
  0
LINE
  5
26B
330
11D
100
AcDbEntity
  8
0
370
    20
100
AcDbLine
 10
79.175
 20
213.0
 30
0.0
 11
78.375
 21
213.0
 31
0.0
  0
MTEXT
  5
26E
330
11D
100
AcDbEntity
  8
0
100
AcDbMText
 10
92.925
 20
274.075
 30
0.0
 40
2.38125
 41
45.72
 46
0.0
 71
     1
 72
     5
  1
{\fMS Mincho|b0|i0|c128|p17;\T1.5;スナッチブロック}
  7
BIGFONT
 73
     1
 44
1.198568999999999
  0
MTEXT
  5
271
330
11D
100
AcDbEntity
  8
0
100
AcDbMText
 10
94.15
 20
263.85
 30
0.0
 40
2.38125
 41
62.865
 46
0.0
 71
     1
 72
     5
  1
{\fMS Mincho|b0|i0|c128|p17;\T1.5;ホイスティングスイベル}
  7
BIGFONT
 73
     1
 44
1.198568999999999
  0
MTEXT
  5
274
330
11D
100
AcDbEntity
  8
0
100
AcDbMText
 10
94.175
 20
245.45
 30
0.0
 40
2.38125
 41
51.435
 46
0.0
 71
     1
 72
     5
  1
{\fMS Mincho|b0|i0|c128|p17;\T1.5;ウォータースイベル}
  7
BIGFONT
 73
     1
 44
1.198568999999999
  0
MTEXT
  5
277
330
11D
100
AcDbEntity
  8
0
100
AcDbMText
 10
107.675
 20
224.575
 30
0.0
 40
2.38125
 41
45.72
 46
0.0
 71
     1
 72
     5
  1
{\fMS Mincho|b0|i0|c128|p17;\T1.5;デリバリーホース}
  7
BIGFONT
 73
     1
 44
1.198568999999999
  0
MTEXT
  5
27A
330
11D
100
AcDbEntity
  8
0
100
AcDbMText
 10
129.75
 20
197.55
 30
0.0
 40
2.38125
 41
17.145
 46
0.0
 71
     1
 72
     5
  1
\fＭＳ 明朝|b0|i0|c128|p17;\T1.8854;ポンプ
  7
BIGFONT
 73
     1
 44
1.198568999999999
  0
MTEXT
  5
27D
330
11D
100
AcDbEntity
  8
0
100
AcDbMText
 10
86.75
 20
194.7
 30
0.0
 40
2.38125
 41
34.29
 46
0.0
 71
     1
 72
     5
  1
{\fMS Mincho|b0|i0|c128|p17;\T1.5;ロッドホルダ}
  7
BIGFONT
 73
     1
 44
1.198568999999999
  0
MTEXT
  5
280
330
11D
100
AcDbEntity
  8
0
100
AcDbMText
 10
122.0
 20
176.275
 30
0.0
 40
2.38125
 41
45.72
 46
0.0
 71
     1
 72
     5
  1
{\fMS Mincho|b0|i0|c128|p17;\T1.5;サクションホース}
  7
BIGFONT
 73
     1
 44
1.198568999999999
  0
LINE
  5
283
330
11D
100
AcDbEntity
  8
0
370
    20
100
AcDbLine
 10
54.225
 20
203.2
 30
0.0
 11
54.225
 21
189.25
 31
0.0
  0
LWPOLYLINE
  5
286
330
11D
100
AcDbEntity
  8
0
100
AcDbPolyline
 90
        6
 70
     0
 43
0.0
 10
63.225
 20
189.25
 10
63.225
 20
201.55
 10
57.075
 20
201.55
 10
57.075
 20
198.25
 10
55.025
 20
198.25
 10
55.025
 20
189.25
  0
LINE
  5
295
330
11D
100
AcDbEntity
  8
0
370
    20
100
AcDbLine
 10
43.575
 20
199.1
 30
0.0
 11
43.575
 21
193.775
 31
0.0
  0
LINE
  5
298
330
11D
100
AcDbEntity
  8
0
370
    20
100
AcDbLine
 10
44.79999999999999
 20
191.6999999999999
 30
0.0
 11
48.9
 21
191.6999999999999
 31
0.0
  0
LINE
  5
29B
330
11D
100
AcDbEntity
  8
0
370
    20
100
AcDbLine
 10
48.9
 20
201.55
 30
0.0
 11
44.79999999999999
 21
201.55
 31
0.0
  0
ELLIPSE
  5
29E
330
11D
100
AcDbEntity
  8
0
370
    20
100
AcDbEllipse
 10
44.79999999999999
 20
199.1
 30
0.0
 11
0.0
 21
2.45
 31
0.0
210
0.0
220
0.0
230
1.0
 40
0.5
 41
6.264777999999999
 42
7.875457307179585
  0
ELLIPSE
  5
2A1
330
11D
100
AcDbEntity
  8
0
370
    20
100
AcDbEllipse
 10
44.79999999999999
 20
194.2
 30
0.0
 11
0.0
 21
2.45
 31
0.0
210
0.0
220
0.0
230
1.0
 40
0.5
 41
1.592271999999999
 42
3.16
  0
ELLIPSE
  5
2A4
330
11D
100
AcDbEntity
  8
0
370
    20
100
AcDbEllipse
 10
48.9
 20
199.1
 30
0.0
 11
0.0
 21
2.45
 31
0.0
210
0.0
220
0.0
230
1.0
 40
0.5
 41
4.690913
 42
6.264777999999999
  0
LINE
  5
2A7
330
11D
100
AcDbEntity
  8
0
370
    20
100
AcDbLine
 10
50.125
 20
194.575
 30
0.0
 11
50.125
 21
199.9
 31
0.0
  0
ELLIPSE
  5
2AA
330
11D
100
AcDbEntity
  8
0
370
    20
100
AcDbEllipse
 10
48.9
 20
194.2
 30
0.0
 11
0.0
 21
2.45
 31
0.0
210
0.0
220
0.0
230
1.0
 40
0.5
 41
3.16
 42
4.690913
  0
HATCH
  5
2AD
330
11D
100
AcDbEntity
  8
0
100
AcDbHatch
 10
0.0
 20
0.0
 30
0.0
210
0.0
220
0.0
230
1.0
  2
ANSI31
 70
     0
 71
     0
 91
        1
 92
        7
 72
     0
 73
     1
 93
        4
 10
21.075
 20
182.7
 10
21.075
 20
179.85
 10
23.925
 20
179.85
 10
23.925
 20
182.7
 97
        1
330
2B0
 75
     0
 76
     1
 52
0.0
 41
0.2
 77
     0
 78
     1
 53
45.0
 43
0.0
 44
0.0
 45
-0.4490128060534576
 46
0.4490128060534577
 79
     0
 47
0.651316
 98
        1
 10
0.0
 20
0.0
  0
LWPOLYLINE
  5
2B0
330
11D
100
AcDbEntity
  8
0
100
AcDbPolyline
 90
        4
 70
     1
 43
0.0
 10
21.075
 20
182.7
 10
21.075
 20
179.85
 10
23.925
 20
179.85
 10
23.925
 20
182.7
  0
LWPOLYLINE
  5
2BB
330
11D
100
AcDbEntity
  8
0
100
AcDbPolyline
 90
        4
 70
     1
 43
0.0
 10
21.075
 20
182.7
 10
21.075
 20
179.85
 10
23.925
 20
179.85
 10
23.925
 20
182.7
  0
HATCH
  5
2C6
330
11D
100
AcDbEntity
  8
0
100
AcDbHatch
 10
0.0
 20
0.0
 30
0.0
210
0.0
220
0.0
230
1.0
  2
ANSI31
 70
     0
 71
     0
 91
        1
 92
        7
 72
     0
 73
     1
 93
        4
 10
41.12499999999999
 20
182.7
 10
41.12499999999999
 20
179.85
 10
44.0
 20
179.85
 10
44.0
 20
182.7
 97
        1
330
2C9
 75
     0
 76
     1
 52
0.0
 41
0.2
 77
     0
 78
     1
 53
45.0
 43
0.0
 44
0.0
 45
-0.4490128060534576
 46
0.4490128060534577
 79
     0
 47
0.651316
 98
        1
 10
0.0
 20
0.0
  0
LWPOLYLINE
  5
2C9
330
11D
100
AcDbEntity
  8
0
100
AcDbPolyline
 90
        4
 70
     1
 43
0.0
 10
41.12499999999999
 20
182.7
 10
41.12499999999999
 20
179.85
 10
44.0
 20
179.85
 10
44.0
 20
182.7
  0
LWPOLYLINE
  5
2D4
330
11D
100
AcDbEntity
  8
0
100
AcDbPolyline
 90
        4
 70
     1
 43
0.0
 10
41.12499999999999
 20
182.7
 10
41.12499999999999
 20
179.85
 10
44.0
 20
179.85
 10
44.0
 20
182.7
  0
HATCH
  5
2DF
330
11D
100
AcDbEntity
  8
0
100
AcDbHatch
 10
0.0
 20
0.0
 30
0.0
210
0.0
220
0.0
230
1.0
  2
ANSI31
 70
     0
 71
     0
 91
        1
 92
        7
 72
     0
 73
     1
 93
        4
 10
57.9
 20
182.7
 10
57.9
 20
179.85
 10
60.775
 20
179.85
 10
60.775
 20
182.7
 97
        1
330
2E2
 75
     0
 76
     1
 52
0.0
 41
0.2
 77
     0
 78
     1
 53
45.0
 43
0.0
 44
0.0
 45
-0.4490128060534576
 46
0.4490128060534577
 79
     0
 47
0.651316
 98
        1
 10
0.0
 20
0.0
  0
LWPOLYLINE
  5
2E2
330
11D
100
AcDbEntity
  8
0
100
AcDbPolyline
 90
        4
 70
     1
 43
0.0
 10
57.9
 20
182.7
 10
57.9
 20
179.85
 10
60.775
 20
179.85
 10
60.775
 20
182.7
  0
LWPOLYLINE
  5
2ED
330
11D
100
AcDbEntity
  8
0
100
AcDbPolyline
 90
        4
 70
     1
 43
0.0
 10
57.9
 20
182.7
 10
57.9
 20
179.85
 10
60.775
 20
179.85
 10
60.775
 20
182.7
  0
HATCH
  5
2F8
330
11D
100
AcDbEntity
  8
0
100
AcDbHatch
 10
0.0
 20
0.0
 30
0.0
210
0.0
220
0.0
230
1.0
  2
ANSI31
 70
     0
 71
     0
 91
        1
 92
        7
 72
     0
 73
     1
 93
        4
 10
73.425
 20
182.7
 10
73.425
 20
179.85
 10
76.29999999999999
 20
179.85
 10
76.29999999999999
 20
182.7
 97
        1
330
2FB
 75
     0
 76
     1
 52
0.0
 41
0.2
 77
     0
 78
     1
 53
45.0
 43
0.0
 44
0.0
 45
-0.4490128060534576
 46
0.4490128060534577
 79
     0
 47
0.651316
 98
        1
 10
0.0
 20
0.0
  0
LWPOLYLINE
  5
2FB
330
11D
100
AcDbEntity
  8
0
100
AcDbPolyline
 90
        4
 70
     1
 43
0.0
 10
73.425
 20
182.7
 10
73.425
 20
179.85
 10
76.29999999999999
 20
179.85
 10
76.29999999999999
 20
182.7
  0
LWPOLYLINE
  5
306
330
11D
100
AcDbEntity
  8
0
100
AcDbPolyline
 90
        4
 70
     1
 43
0.0
 10
73.425
 20
182.7
 10
73.425
 20
179.85
 10
76.29999999999999
 20
179.85
 10
76.29999999999999
 20
182.7
  0
HATCH
  5
311
330
11D
100
AcDbEntity
  8
0
100
AcDbHatch
 10
0.0
 20
0.0
 30
0.0
210
0.0
220
0.0
230
1.0
  2
ANSI31
 70
     0
 71
     0
 91
        1
 92
        7
 72
     0
 73
     1
 93
        4
 10
86.95
 20
182.7
 10
86.95
 20
179.85
 10
89.82499999999999
 20
179.85
 10
89.82499999999999
 20
182.7
 97
        1
330
314
 75
     0
 76
     1
 52
0.0
 41
0.2
 77
     0
 78
     1
 53
45.0
 43
0.0
 44
0.0
 45
-0.4490128060534576
 46
0.4490128060534577
 79
     0
 47
0.651316
 98
        1
 10
0.0
 20
0.0
  0
LWPOLYLINE
  5
314
330
11D
100
AcDbEntity
  8
0
100
AcDbPolyline
 90
        4
 70
     1
 43
0.0
 10
86.95
 20
182.7
 10
86.95
 20
179.85
 10
89.82499999999999
 20
179.85
 10
89.82499999999999
 20
182.7
  0
LWPOLYLINE
  5
31F
330
11D
100
AcDbEntity
  8
0
100
AcDbPolyline
 90
        4
 70
     1
 43
0.0
 10
86.95
 20
182.7
 10
86.95
 20
179.85
 10
89.82499999999999
 20
179.85
 10
89.82499999999999
 20
182.7
  0
LWPOLYLINE
  5
32A
330
11D
100
AcDbEntity
  8
0
100
AcDbPolyline
 90
       16
 70
     0
 43
0.0
 10
76.29999999999999
 20
179.85
 10
70.975
 20
179.85
 10
66.5
 20
180.675
 10
62.4
 20
180.675
 10
60.775
 20
179.85
 10
57.9
 20
179.85
 10
52.175
 20
179.85
 10
48.1
 20
180.25
 10
44.0
 20
179.85
 10
41.12499999999999
 20
179.85
 10
34.575
 20
180.675
 10
30.05
 20
180.25
 10
23.525
 20
179.85
 10
21.075
 20
179.85
 10
13.7
 20
179.025
 10
6.325
 20
179.85
  0
LWPOLYLINE
  5
34D
330
11D
100
AcDbEntity
  8
0
100
AcDbPolyline
 90
        7
 70
     0
 43
0.0
 10
94.325
 20
178.225
 10
94.325
 20
168.4
 10
96.77500000000001
 20
165.95
 10
114.775
 20
165.95
 10
117.225
 20
168.4
 10
117.225
 20
179.85
 10
154.05
 20
179.85
  0
LWPOLYLINE
  5
35E
330
11D
100
AcDbEntity
  8
0
100
AcDbPolyline
 90
        4
 70
     1
 43
0.0
 10
117.225
 20
181.475
 10
117.225
 20
179.85
 10
146.7
 20
179.85
 10
146.7
 20
181.475
  0
LWPOLYLINE
  5
369
330
11D
100
AcDbEntity
  8
0
100
AcDbPolyline
 90
        4
 70
     1
 43
0.0
 10
118.875
 20
183.55
 10
118.875
 20
181.475
 10
145.475
 20
181.475
 10
145.475
 20
183.55
  0
CIRCLE
  5
374
330
11D
100
AcDbEntity
  8
0
370
    20
100
AcDbCircle
 10
128.725
 20
186.8
 30
0.0
 40
2.024999999999999
  0
CIRCLE
  5
377
330
11D
100
AcDbEntity
  8
0
370
    20
100
AcDbCircle
 10
128.725
 20
186.8
 30
0.0
 40
4.474999999999999
  0
CIRCLE
  5
37A
330
11D
100
AcDbEntity
  8
0
370
    20
100
AcDbCircle
 10
138.1
 20
185.575
 30
0.0
 40
1.225
  0
LWPOLYLINE
  5
37D
330
11D
100
AcDbEntity
  8
0
100
AcDbPolyline
 90
        6
 70
     0
 43
0.0
 10
135.65
 20
183.55
 10
135.65
 20
188.025
 10
140.15
 20
188.025
 10
140.15
 20
190.475
 10
144.675
 20
190.475
 10
144.675
 20
183.55
  0
LWPOLYLINE
  5
38C
330
11D
100
AcDbEntity
  8
0
100
AcDbPolyline
 90
        4
 70
     1
 43
0.0
 10
119.3
 20
188.025
 10
119.3
 20
185.575
 10
121.325
 20
185.575
 10
121.325
 20
188.025
  0
LWPOLYLINE
  5
397
330
11D
100
AcDbEntity
  8
0
100
AcDbPolyline
 90
        4
 70
     1
 43
0.0
 10
122.175
 20
188.025
 10
122.175
 20
185.575
 10
125.425
 20
185.575
 10
125.425
 20
188.025
  0
LWPOLYLINE
  5
3A2
330
11D
100
AcDbEntity
  8
0
100
AcDbPolyline
 90
        4
 70
     1
 43
0.0
 10
121.325
 20
188.45
 10
121.325
 20
183.55
 10
122.175
 20
183.55
 10
122.175
 20
188.45
  0
LWPOLYLINE
  5
3AD
330
11D
100
AcDbEntity
  8
0
100
AcDbPolyline
 90
        4
 70
     1
 43
0.0
 10
118.45
 20
195.8
 10
118.45
 20
191.6999999999999
 10
121.75
 20
191.6999999999999
 10
121.75
 20
195.8
  0
ELLIPSE
  5
3B8
330
11D
100
AcDbEntity
  8
0
370
    20
100
AcDbEllipse
 10
120.1
 20
195.8
 30
0.0
 11
1.625
 21
0.0
 31
0.0
210
0.0
220
0.0
230
1.0
 40
0.7538460000000001
 41
6.264777999999999
 42
9.443185307179586
  0
ELLIPSE
  5
3BB
330
11D
100
AcDbEntity
  8
0
370
    20
100
AcDbEllipse
 10
120.1
 20
191.6999999999999
 30
0.0
 11
1.625
 21
0.0
 31
0.0
210
0.0
220
0.0
230
1.0
 40
0.7538460000000001
 41
3.16
 42
6.264777999999999
  0
LWPOLYLINE
  5
3BE
330
11D
100
AcDbEntity
  8
0
100
AcDbPolyline
 90
        4
 70
     1
 43
0.0
 10
119.675
 20
190.475
 10
119.675
 20
188.025
 10
120.95
 20
188.025
 10
120.95
 20
190.475
  0
MTEXT
  5
3C9
330
11D
100
AcDbEntity
  8
0
100
AcDbMText
 10
34.25
 20
209.925
 30
0.0
 40
2.38125
 41
17.145
 46
0.0
 71
     1
 72
     5
  1
\f@ＭＳ 明朝|b0|i0|c128|p17;\T1.8854;原動機
  7
BIGFONT
 11
0.0
 21
-1.0
 31
0.0
 73
     1
 44
1.198568999999999
  0
MTEXT
  5
3CC
330
11D
100
AcDbEntity
  8
0
100
AcDbMText
 10
90.775
 20
226.7
 30
0.0
 40
2.38125
 41
40.005
 46
0.0
 71
     1
 72
     5
  1
{\f@MS Mincho|b0|i0|c128|p17;\T1.5;スイベルヘッド}
  7
BIGFONT
 11
0.0
 21
-1.0
 31
0.0
 73
     1
 44
1.198568999999999
  0
MTEXT
  5
3CF
330
11D
100
AcDbEntity
  8
0
100
AcDbMText
 10
54.75
 20
175.95
 30
0.0
 40
2.38125
 41
34.29
 46
0.0
 71
     1
 72
     5
  1
{\f@MS Mincho|b0|i0|c128|p17;\T1.5;オイルタンク}
  7
BIGFONT
 11
0.0
 21
-1.0
 31
0.0
 73
     1
 44
1.198568999999999
  0
LWPOLYLINE
  5
3D2
330
11D
100
AcDbEntity
  8
0
100
AcDbPolyline
 90
       14
 70
     0
 43
0.0
 10
76.29999999999999
 20
179.45
 10
76.72499999999999
 20
177.4
 10
76.72499999999999
 20
170.85
 10
76.72499999999999
 20
165.525
 10
76.72499999999999
 20
160.2
 10
76.72499999999999
 20
157.75
 10
77.52500000000001
 20
154.875
 10
77.15
 20
135.25
 10
77.52500000000001
 20
130.325
 10
77.52500000000001
 20
122.575
 10
77.52500000000001
 20
112.35
 10
77.52500000000001
 20
106.6
 10
78.75
 20
105.375
 10
78.75
 20
81.225
  0
LWPOLYLINE
  5
3F1
330
11D
100
AcDbEntity
  8
0
100
AcDbPolyline
 90
       14
 70
     0
 43
0.0
 10
94.325
 20
178.225
 10
86.575
 20
178.225
 10
86.575
 20
172.075
 10
86.575
 20
164.725
 10
86.95
 20
157.3249999999999
 10
86.15
 20
155.725
 10
86.15
 20
151.625
 10
85.72499999999999
 20
139.325
 10
86.15
 20
130.75
 10
85.72499999999999
 20
119.7
 10
86.15
 20
111.925
 10
86.15
 20
107.825
 10
85.29999999999999
 20
106.175
 10
85.29999999999999
 20
81.225
  0
LINE
  5
410
330
11D
100
AcDbEntity
  8
0
370
    40
100
AcDbLine
 10
85.72499999999999
 20
179.025
 30
0.0
 11
85.72499999999999
 21
155.725
 31
0.0
  0
LINE
  5
413
330
11D
100
AcDbEntity
  8
0
370
    40
100
AcDbLine
 10
77.52500000000001
 20
179.025
 30
0.0
 11
77.52500000000001
 21
155.3
 31
0.0
  0
LINE
  5
416
330
11D
100
AcDbEntity
  8
0
370
    40
100
AcDbLine
 10
79.59999999999999
 20
101.275
 30
0.0
 11
79.59999999999999
 21
81.65
 31
0.0
  0
LINE
  5
419
330
11D
100
AcDbEntity
  8
0
370
    40
100
AcDbLine
 10
84.075
 20
101.275
 30
0.0
 11
84.075
 21
81.65
 31
0.0
  0
LINE
  5
41C
330
11D
100
AcDbEntity
  8
0
370
    40
100
AcDbLine
 10
79.175
 20
85.325
 30
0.0
 11
79.175
 21
81.65
 31
0.0
  0
LINE
  5
41F
330
11D
100
AcDbEntity
  8
0
370
    40
100
AcDbLine
 10
84.50000000000001
 20
81.65
 30
0.0
 11
84.50000000000001
 21
85.325
 31
0.0
  0
LINE
  5
422
330
11D
100
AcDbEntity
  8
0
370
    20
100
AcDbLine
 10
82.85
 20
193.35
 30
0.0
 11
80.82500000000001
 21
193.35
 31
0.0
  0
LINE
  5
425
330
11D
100
AcDbEntity
  8
0
370
    40
100
AcDbLine
 10
79.59999999999999
 20
101.275
 30
0.0
 11
80.82500000000001
 21
101.275
 31
0.0
  0
LINE
  5
428
330
11D
100
AcDbEntity
  8
0
370
    40
100
AcDbLine
 10
84.075
 20
101.275
 30
0.0
 11
82.85
 21
101.275
 31
0.0
  0
LWPOLYLINE
  5
42B
330
11D
100
AcDbEntity
  8
0
100
AcDbPolyline
 90
        4
 70
     1
 43
0.0
 10
125.425
 20
183.55
 10
125.425
 20
190.475
 10
131.55
 20
190.475
 10
131.55
 20
183.55
  0
LINE
  5
436
330
11D
100
AcDbEntity
  8
0
370
    20
100
AcDbLine
 10
131.05
 20
190.7
 30
0.0
 11
138.65
 21
186.55
 31
0.0
  0
LINE
  5
439
330
11D
100
AcDbEntity
  8
0
370
    20
100
AcDbLine
 10
130.175
 20
182.675
 30
0.0
 11
138.1
 21
184.35
 31
0.0
  0
ARC
  5
43C
330
11D
100
AcDbEntity
  8
0
370
    20
100
AcDbCircle
 10
119.3
 20
182.7
 30
0.0
 40
2.85
100
AcDbArc
 50
89.484375
 51
180.5
  0
ARC
  5
43F
330
11D
100
AcDbEntity
  8
0
370
    20
100
AcDbCircle
 10
119.3
 20
182.7
 30
0.0
 40
4.075
100
AcDbArc
 50
89.640625
 51
180.34375
  0
ARC
  5
442
330
11D
100
AcDbEntity
  8
0
370
    20
100
AcDbCircle
 10
119.3
 20
190.9
 30
0.0
 40
2.85
100
AcDbArc
 50
191.703125
 51
270.5
  0
ARC
  5
445
330
11D
100
AcDbEntity
  8
0
370
    20
100
AcDbCircle
 10
119.3
 20
190.9
 30
0.0
 40
4.075
100
AcDbArc
 50
191.296875
 51
270.359375
  0
LWPOLYLINE
  5
448
330
11D
100
AcDbEntity
  8
0
100
AcDbPolyline
 90
        4
 70
     1
 43
0.4
 10
116.425
 20
170.45
 10
116.425
 20
168.8
 10
114.775
 20
168.8
 10
114.775
 20
170.45
  0
LINE
  5
453
330
11D
100
AcDbEntity
  8
0
370
    20
100
AcDbLine
 10
116.425
 20
182.7
 30
0.0
 11
116.425
 21
170.45
 31
0.0
  0
LINE
  5
456
330
11D
100
AcDbEntity
  8
0
370
    20
100
AcDbLine
 10
116.425
 20
170.45
 30
0.0
 11
115.2
 21
170.45
 31
0.0
  0
LINE
  5
459
330
11D
100
AcDbEntity
  8
0
370
    20
100
AcDbLine
 10
115.2
 20
170.45
 30
0.0
 11
115.2
 21
182.7
 31
0.0
  0
ARC
  5
45C
330
11D
100
AcDbEntity
  8
0
370
    20
100
AcDbCircle
 10
84.075
 20
244.5
 30
0.0
 40
1.625
100
AcDbArc
 50
27.34375
 51
160.71875
  0
ARC
  5
45F
330
11D
100
AcDbEntity
  8
0
370
    20
100
AcDbCircle
 10
84.075
 20
244.5
 30
0.0
 40
2.85
100
AcDbArc
 50
27.453125
 51
169.390625
  0
LINE
  5
462
330
11D
100
AcDbEntity
  8
0
370
    20
100
AcDbLine
 10
85.425
 20
245.25
 30
0.0
 11
115.2
 21
190.1
 31
0.0
  0
LINE
  5
465
330
11D
100
AcDbEntity
  8
0
370
    20
100
AcDbLine
 10
86.575
 20
245.825
 30
0.0
 11
116.85
 21
189.675
 31
0.0
  0
LINE
  5
468
330
11D
100
AcDbEntity
  8
0
370
    20
100
AcDbLine
 10
95.54999999999999
 20
185.575
 30
0.0
 11
95.54999999999999
 21
182.7
 31
0.0
  0
LINE
  5
46B
330
11D
100
AcDbEntity
  8
0
370
    20
100
AcDbLine
 10
95.54999999999999
 20
182.7
 30
0.0
 11
10.025
 21
182.7
 31
0.0
  0
LINE
  5
46E
330
11D
100
AcDbEntity
  8
0
370
    20
100
AcDbLine
 10
10.025
 20
182.7
 30
0.0
 11
10.025
 21
185.575
 31
0.0
  0
LINE
  5
471
330
11D
100
AcDbEntity
  8
0
370
    20
100
AcDbLine
 10
10.025
 20
185.575
 30
0.0
 11
80.82500000000001
 21
185.575
 31
0.0
  0
LINE
  5
474
330
11D
100
AcDbEntity
  8
0
370
    20
100
AcDbLine
 10
82.05
 20
185.575
 30
0.0
 11
95.54999999999999
 21
185.575
 31
0.0
  0
LINE
  5
477
330
11D
100
AcDbEntity
  8
0
370
    20
100
AcDbLine
 10
80.82500000000001
 20
193.35
 30
0.0
 11
80.82500000000001
 21
185.575
 31
0.0
  0
LINE
  5
47A
330
11D
100
AcDbEntity
  8
0
370
    20
100
AcDbLine
 10
80.82500000000001
 20
182.7
 30
0.0
 11
80.82500000000001
 21
101.275
 31
0.0
  0
LINE
  5
47D
330
11D
100
AcDbEntity
  8
0
370
    20
100
AcDbLine
 10
82.85
 20
193.35
 30
0.0
 11
82.85
 21
185.575
 31
0.0
  0
LINE
  5
480
330
11D
100
AcDbEntity
  8
0
370
    20
100
AcDbLine
 10
82.85
 20
182.7
 30
0.0
 11
82.85
 21
101.275
 31
0.0
  0
LINE
  5
483
330
11D
100
AcDbEntity
  8
0
370
    20
100
AcDbLine
 10
80.82500000000001
 20
185.575
 30
0.0
 11
82.05
 21
185.575
 31
0.0
  0
LWPOLYLINE
  5
486
330
11D
100
AcDbEntity
  8
0
  6
DOT
 62
     7
100
AcDbPolyline
 90
        3
 70
     0
 43
0.0
 10
89.82499999999999
 20
179.85
 10
92.275
 20
180.675
 10
95.15
 20
180.25
  0
ELLIPSE
  5
48F
330
11D
100
AcDbEntity
  8
0
  6
DOT
 62
     7
370
    20
100
AcDbEllipse
 10
94.325
 20
174.525
 30
0.0
 11
0.0
 21
4.075
 31
0.0
210
0.0
220
0.0
230
1.0
 40
0.699387
 41
4.706253
 42
6.267844999999999
  0
ELLIPSE
  5
492
330
11D
100
AcDbEntity
  8
0
  6
DOT
 62
     7
370
    20
100
AcDbEllipse
 10
94.325
 20
174.95
 30
0.0
 11
0.0
 21
3.25
 31
0.0
210
0.0
220
0.0
230
1.0
 40
0.6230770000000002
 41
4.697048999999999
 42
6.258642
  0
ELLIPSE
  5
495
330
11D
100
AcDbEntity
  8
0
  6
DOT
 62
     7
370
    20
100
AcDbEllipse
 10
94.325
 20
174.125
 30
0.0
 11
0.0
 21
4.9
 31
0.0
210
0.0
220
0.0
230
1.0
 40
0.75
 41
4.706253
 42
6.270913
  0
LINE
  5
498
330
11D
100
AcDbEntity
  8
0
  6
DOT
 62
     7
370
    20
100
AcDbLine
 10
86.575
 20
179.025
 30
0.0
 11
94.325
 21
179.025
 31
0.0
  0
LINE
  5
49B
330
11D
100
AcDbEntity
  8
0
370
    20
100
AcDbLine
 10
94.725
 20
175.775
 30
0.0
 11
116.85
 21
175.775
 31
0.0
  0
LINE
  5
49E
330
11D
100
AcDbEntity
  8
0
370
    20
100
AcDbLine
 10
94.725
 20
172.075
 30
0.0
 11
97.17500000000001
 21
172.075
 31
0.0
  0
LINE
  5
4A1
330
11D
100
AcDbEntity
  8
0
370
    20
100
AcDbLine
 10
99.65000000000001
 20
172.075
 30
0.0
 11
102.1
 21
172.075
 31
0.0
  0
LINE
  5
4A4
330
11D
100
AcDbEntity
  8
0
370
    20
100
AcDbLine
 10
104.15
 20
172.075
 30
0.0
 11
106.6
 21
172.075
 31
0.0
  0
LINE
  5
4A7
330
11D
100
AcDbEntity
  8
0
370
    20
100
AcDbLine
 10
108.65
 20
172.075
 30
0.0
 11
111.1
 21
172.075
 31
0.0
  0
LINE
  5
4AA
330
11D
100
AcDbEntity
  8
0
370
    20
100
AcDbLine
 10
113.125
 20
172.075
 30
0.0
 11
115.625
 21
172.075
 31
0.0
  0
LINE
  5
4AD
330
11D
100
AcDbEntity
  8
0
370
    20
100
AcDbLine
 10
94.325
 20
174.525
 30
0.0
 11
96.77500000000001
 21
174.525
 31
0.0
  0
LINE
  5
4B0
330
11D
100
AcDbEntity
  8
0
370
    20
100
AcDbLine
 10
99.22499999999999
 20
174.525
 30
0.0
 11
101.7
 21
174.525
 31
0.0
  0
LINE
  5
4B3
330
11D
100
AcDbEntity
  8
0
370
    20
100
AcDbLine
 10
103.75
 20
174.525
 30
0.0
 11
106.2
 21
174.525
 31
0.0
  0
LINE
  5
4B6
330
11D
100
AcDbEntity
  8
0
370
    20
100
AcDbLine
 10
108.225
 20
174.525
 30
0.0
 11
110.675
 21
174.525
 31
0.0
  0
LINE
  5
4B9
330
11D
100
AcDbEntity
  8
0
370
    20
100
AcDbLine
 10
112.75
 20
174.525
 30
0.0
 11
115.2
 21
174.525
 31
0.0
  0
LINE
  5
4BC
330
11D
100
AcDbEntity
  8
0
370
    20
100
AcDbLine
 10
95.95
 20
173.3
 30
0.0
 11
98.42500000000001
 21
173.3
 31
0.0
  0
LINE
  5
4BF
330
11D
100
AcDbEntity
  8
0
370
    20
100
AcDbLine
 10
100.875
 20
173.3
 30
0.0
 11
103.325
 21
173.3
 31
0.0
  0
LINE
  5
4C2
330
11D
100
AcDbEntity
  8
0
370
    20
100
AcDbLine
 10
105.375
 20
173.3
 30
0.0
 11
107.825
 21
173.3
 31
0.0
  0
LINE
  5
4C5
330
11D
100
AcDbEntity
  8
0
370
    20
100
AcDbLine
 10
109.875
 20
173.3
 30
0.0
 11
112.325
 21
173.3
 31
0.0
  0
LINE
  5
4C8
330
11D
100
AcDbEntity
  8
0
370
    20
100
AcDbLine
 10
114.35
 20
173.3
 30
0.0
 11
116.85
 21
173.3
 31
0.0
  0
LINE
  5
4CB
330
11D
100
AcDbEntity
  8
0
370
    20
100
AcDbLine
 10
95.95
 20
170.85
 30
0.0
 11
98.42500000000001
 21
170.85
 31
0.0
  0
LINE
  5
4CE
330
11D
100
AcDbEntity
  8
0
370
    20
100
AcDbLine
 10
100.875
 20
170.85
 30
0.0
 11
103.325
 21
170.85
 31
0.0
  0
LINE
  5
4D1
330
11D
100
AcDbEntity
  8
0
370
    20
100
AcDbLine
 10
105.375
 20
170.85
 30
0.0
 11
107.825
 21
170.85
 31
0.0
  0
LINE
  5
4D4
330
11D
100
AcDbEntity
  8
0
370
    20
100
AcDbLine
 10
109.875
 20
170.85
 30
0.0
 11
112.325
 21
170.85
 31
0.0
  0
LINE
  5
4D7
330
11D
100
AcDbEntity
  8
0
370
    20
100
AcDbLine
 10
114.35
 20
170.85
 30
0.0
 11
116.85
 21
170.85
 31
0.0
  0
LINE
  5
4DA
330
11D
100
AcDbEntity
  8
0
370
    20
100
AcDbLine
 10
94.725
 20
169.2
 30
0.0
 11
97.17500000000001
 21
169.2
 31
0.0
  0
LINE
  5
4DD
330
11D
100
AcDbEntity
  8
0
370
    20
100
AcDbLine
 10
99.65000000000001
 20
169.2
 30
0.0
 11
102.1
 21
169.2
 31
0.0
  0
LINE
  5
4E0
330
11D
100
AcDbEntity
  8
0
370
    20
100
AcDbLine
 10
104.15
 20
169.2
 30
0.0
 11
106.6
 21
169.2
 31
0.0
  0
LINE
  5
4E3
330
11D
100
AcDbEntity
  8
0
370
    20
100
AcDbLine
 10
108.65
 20
169.2
 30
0.0
 11
111.1
 21
169.2
 31
0.0
  0
LINE
  5
4E6
330
11D
100
AcDbEntity
  8
0
370
    20
100
AcDbLine
 10
113.125
 20
169.2
 30
0.0
 11
115.625
 21
169.2
 31
0.0
  0
LINE
  5
4E9
330
11D
100
AcDbEntity
  8
0
370
    20
100
AcDbLine
 10
96.37500000000001
 20
167.575
 30
0.0
 11
98.825
 21
167.575
 31
0.0
  0
LINE
  5
4EC
330
11D
100
AcDbEntity
  8
0
370
    20
100
AcDbLine
 10
101.275
 20
167.575
 30
0.0
 11
103.75
 21
167.575
 31
0.0
  0
LINE
  5
4EF
330
11D
100
AcDbEntity
  8
0
370
    20
100
AcDbLine
 10
105.775
 20
167.575
 30
0.0
 11
108.225
 21
167.575
 31
0.0
  0
LINE
  5
4F2
330
11D
100
AcDbEntity
  8
0
370
    20
100
AcDbLine
 10
110.3
 20
167.575
 30
0.0
 11
112.75
 21
167.575
 31
0.0
  0
ARC
  5
4F5
330
11D
100
AcDbEntity
  8
0
370
    40
100
AcDbCircle
 10
78.75
 20
186.8
 30
0.0
 40
1.625
100
AcDbArc
 50
14.0923942402028
 51
168.34375
  0
LINE
  5
4F8
330
11D
100
AcDbEntity
  8
0
370
    40
100
AcDbLine
 10
77.15851177411995
 20
187.1283142197426
 30
0.0
 11
77.15
 21
185.575
 31
0.0
  0
LINE
  5
4FB
330
11D
100
AcDbEntity
  8
0
370
    40
100
AcDbLine
 10
80.32609456151595
 20
187.1956651780987
 30
0.0
 11
80.82500000000001
 21
185.575
 31
0.0
  0
POINT
  5
4FE
330
11D
100
AcDbEntity
  8
0
100
AcDbPoint
 10
78.75
 20
186.8
 30
0.0
  0
LINE
  5
501
330
11D
100
AcDbEntity
  8
0
370
    40
100
AcDbLine
 10
77.15
 20
185.575
 30
0.0
 11
80.82500000000001
 21
185.575
 31
0.0
  0
ARC
  5
504
330
11D
100
AcDbEntity
  8
0
370
    40
100
AcDbCircle
 10
84.83290729279277
 20
186.7485956461019
 30
0.0
 40
1.676999394939999
100
AcDbArc
 50
12.90414937193313
 51
163.4960520808853
  0
LINE
  5
507
330
11D
100
AcDbEntity
  8
0
370
    40
100
AcDbLine
 10
86.46755410795391
 20
187.1231043380073
 30
0.0
 11
86.52500000000001
 21
185.5749999999999
 31
0.0
  0
LINE
  5
50A
330
11D
100
AcDbEntity
  8
0
370
    40
100
AcDbLine
 10
83.22499999999999
 20
187.225
 30
0.0
 11
82.85
 21
185.5749999999999
 31
0.0
  0
POINT
  5
50D
330
11D
100
AcDbEntity
  8
0
100
AcDbPoint
 10
84.50000000000001
 20
186.8
 30
0.0
  0
LINE
  5
510
330
11D
100
AcDbEntity
  8
0
370
    40
100
AcDbLine
 10
86.52500000000001
 20
185.5749999999999
 30
0.0
 11
82.85
 21
185.5749999999999
 31
0.0
  0
POINT
  5
513
330
11D
100
AcDbEntity
  8
0
100
AcDbPoint
 10
20.65
 20
187.65
 30
0.0
  0
POINT
  5
516
330
11D
100
AcDbEntity
  8
0
100
AcDbPoint
 10
75.5
 20
187.65
 30
0.0
  0
CIRCLE
  5
519
330
11D
100
AcDbEntity
  8
0
370
    20
100
AcDbCircle
 10
74.27500000000001
 20
223.625
 30
0.0
 40
1.225
  0
LWPOLYLINE
  5
51C
330
11D
100
AcDbEntity
  8
0
100
AcDbPolyline
 90
        5
 70
     0
 43
0.0
 10
76.72499999999999
 20
221.6
 10
76.72499999999999
 20
234.7
 10
75.075
 20
234.7
 10
73.425
 20
232.625
 10
73.425
 20
226.1
  0
LWPOLYLINE
  5
529
330
11D
100
AcDbEntity
  8
0
100
AcDbPolyline
 90
        4
 70
     1
 43
0.0
 10
59.525
 20
224.475
 10
59.525
 20
221.175
 10
62.4
 20
221.175
 10
62.4
 20
224.475
  0
LWPOLYLINE
  5
534
330
11D
100
AcDbEntity
  8
0
100
AcDbPolyline
 90
        4
 70
     1
 43
0.0
 10
59.525
 20
223.625
 10
59.525
 20
234.7
 10
62.4
 20
234.7
 10
62.4
 20
223.625
  0
LWPOLYLINE
  5
53F
330
11D
100
AcDbEntity
  8
0
100
AcDbPolyline
 90
        4
 70
     1
 43
0.0
 10
60.35
 20
239.175
 10
60.35
 20
224.475
 10
61.17499999999999
 20
224.475
 10
61.17499999999999
 20
239.175
  0
LWPOLYLINE
  5
54A
330
11D
100
AcDbEntity
  8
0
100
AcDbPolyline
 90
        4
 70
     1
 43
0.0
 10
68.525
 20
224.475
 10
68.525
 20
221.175
 10
71.4
 20
221.175
 10
71.4
 20
224.475
  0
LWPOLYLINE
  5
555
330
11D
100
AcDbEntity
  8
0
100
AcDbPolyline
 90
        4
 70
     1
 43
0.0
 10
68.525
 20
223.625
 10
68.525
 20
234.7
 10
71.4
 20
234.7
 10
71.4
 20
223.625
  0
LWPOLYLINE
  5
560
330
11D
100
AcDbEntity
  8
0
100
AcDbPolyline
 90
        4
 70
     1
 43
0.0
 10
69.75
 20
239.175
 10
69.75
 20
224.475
 10
70.59999999999999
 20
224.475
 10
70.59999999999999
 20
239.175
  0
POINT
  5
56B
330
11D
100
AcDbEntity
  8
0
100
AcDbPoint
 10
60.77500000000009
 20
239.6000000000004
 30
0.0
  0
POINT
  5
56E
330
11D
100
AcDbEntity
  8
0
100
AcDbPoint
 10
70.175
 20
239.6
 30
0.0
  0
ARC
  5
571
330
11D
100
AcDbEntity
  8
0
370
    20
100
AcDbCircle
 10
74.27500000000001
 20
223.625
 30
0.0
 40
2.45
100
AcDbArc
 50
359.421875
 51
167.546875
  0
LINE
  5
574
330
11D
100
AcDbEntity
  8
0
370
    20
100
AcDbLine
 10
71.825
 20
224.05
 30
0.0
 11
71.825
 21
221.175
 31
0.0
  0
LINE
  5
577
330
11D
100
AcDbEntity
  8
0
  6
DOT
 62
     7
370
    20
100
AcDbLine
 10
62.4
 20
231.4
 30
0.0
 11
68.525
 21
231.4
 31
0.0
  0
LINE
  5
57A
330
11D
100
AcDbEntity
  8
0
  6
DOT
 62
     7
370
    20
100
AcDbLine
 10
62.4
 20
224.475
 30
0.0
 11
68.525
 21
224.475
 31
0.0
  0
LINE
  5
57D
330
11D
100
AcDbEntity
  8
0
370
    20
100
AcDbLine
 10
63.225
 20
231.4
 30
0.0
 11
62.4
 21
227.725
 31
0.0
  0
LINE
  5
580
330
11D
100
AcDbEntity
  8
0
370
    20
100
AcDbLine
 10
62.4
 20
224.475
 30
0.0
 11
64.05
 21
231.4
 31
0.0
  0
LINE
  5
583
330
11D
100
AcDbEntity
  8
0
370
    20
100
AcDbLine
 10
63.225
 20
224.475
 30
0.0
 11
64.84999999999999
 21
231.4
 31
0.0
  0
LINE
  5
586
330
11D
100
AcDbEntity
  8
0
370
    20
100
AcDbLine
 10
64.05
 20
224.475
 30
0.0
 11
65.67499999999999
 21
231.4
 31
0.0
  0
LINE
  5
589
330
11D
100
AcDbEntity
  8
0
370
    20
100
AcDbLine
 10
64.84999999999999
 20
224.475
 30
0.0
 11
66.5
 21
231.4
 31
0.0
  0
LINE
  5
58C
330
11D
100
AcDbEntity
  8
0
370
    20
100
AcDbLine
 10
65.67499999999999
 20
224.475
 30
0.0
 11
67.3
 21
231.4
 31
0.0
  0
LINE
  5
58F
330
11D
100
AcDbEntity
  8
0
370
    20
100
AcDbLine
 10
66.5
 20
224.475
 30
0.0
 11
68.125
 21
231.4
 31
0.0
  0
LINE
  5
592
330
11D
100
AcDbEntity
  8
0
370
    20
100
AcDbLine
 10
68.125
 20
228.15
 30
0.0
 11
67.3
 21
224.475
 31
0.0
  0
LINE
  5
595
330
11D
100
AcDbEntity
  8
0
  6
DASHED
 62
     7
370
    30
100
AcDbLine
 10
66.5
 20
231.825
 30
0.0
 11
68.525
 21
241.675
 31
0.0
  0
LINE
  5
598
330
11D
100
AcDbEntity
  8
0
  6
DASHED
 62
     7
370
    30
100
AcDbLine
 10
80.4
 20
269.875
 30
0.0
 11
75.5
 21
252.3
 31
0.0
  0
LWPOLYLINE
  5
59B
330
11D
100
AcDbEntity
  8
0
100
AcDbPolyline
 90
        4
 70
     1
 43
0.0
 10
81.25
 20
279.3
 10
81.25
 20
278.075
 10
83.275
 20
278.075
 10
83.275
 20
279.3
  0
ARC
  5
5A6
330
11D
100
AcDbEntity
  8
0
370
    40
100
AcDbCircle
 10
82.05
 20
274.775
 30
0.0
 40
1.225
100
AcDbArc
 50
181.15625
 51
79.578125
  0
LINE
  5
5A9
330
11D
100
AcDbEntity
  8
0
370
    40
100
AcDbLine
 10
82.05
 20
276.05
 30
0.0
 11
82.05
 21
277.275
 31
0.0
  0
LWPOLYLINE
  5
5AC
330
11D
100
AcDbEntity
  8
0
100
AcDbPolyline
 90
        6
 70
     0
 43
0.0
 10
82.05
 20
271.95
 10
82.85
 20
271.95
 10
82.05
 20
271.95
 10
81.25
 20
270.725
 10
81.62499999999999
 20
269.075
 10
82.475
 20
268.65
  0
LINE
  5
5BB
330
11D
100
AcDbEntity
  8
0
370
    40
100
AcDbLine
 10
82.05
 20
274.4
 30
0.0
 11
82.05
 21
272.325
 31
0.0
  0
LINE
  5
5BE
330
11D
100
AcDbEntity
  8
0
  6
DASHED
370
    30
100
AcDbLine
 10
83.275
 20
268.65
 30
0.0
 11
83.275
 21
265.4
 31
0.0
  0
MTEXT
  5
5C1
330
11D
100
AcDbEntity
  8
0
100
AcDbMText
 10
90.84999999999999
 20
164.825
 30
0.0
 40
2.38125
 41
40.005
 46
0.0
 71
     1
 72
     5
  1
{\fMS Mincho|b0|i0|c128|p17;\T1.5;ドライブパイプ}
  7
BIGFONT
 73
     1
 44
1.198568999999999
  0
MTEXT
  5
5C4
330
11D
100
AcDbEntity
  8
0
100
AcDbMText
 10
91.69999999999999
 20
146.0
 30
0.0
 40
2.38125
 41
28.575
 46
0.0
 71
     1
 72
     5
  1
{\fMS Mincho|b0|i0|c128|p17;\T1.5;ケーシング}
  7
BIGFONT
 73
     1
 44
1.198568999999999
  0
MTEXT
  5
5C7
330
11D
100
AcDbEntity
  8
0
100
AcDbMText
 10
92.09999999999999
 20
132.075
 30
0.0
 40
2.38125
 41
45.72
 46
0.0
 71
     1
 72
     5
  1
{\fMS Mincho|b0|i0|c128|p17;\T1.5;ボーリングロッド}
  7
BIGFONT
 73
     1
 44
1.198568999999999
  0
MTEXT
  5
5CA
330
11D
100
AcDbEntity
  8
0
100
AcDbMText
 10
90.84999999999999
 20
98.525
 30
0.0
 40
2.38125
 41
34.29
 46
0.0
 71
     1
 72
     5
  1
{\fMS Mincho|b0|i0|c128|p17;\T1.5;コアチューブ}
  7
BIGFONT
 73
     1
 44
1.198568999999999
  0
MTEXT
  5
5CD
330
11D
100
AcDbEntity
  8
0
100
AcDbMText
 10
90.84999999999999
 20
87.07500000000001
 30
0.0
 40
2.38125
 41
40.005
 46
0.0
 71
     1
 72
     5
  1
{\fMS Mincho|b0|i0|c128|p17;\T1.5;メタルクラウン}
  7
BIGFONT
 73
     1
 44
1.198568999999999
  0
LWPOLYLINE
  5
5D0
330
11D
100
AcDbEntity
  8
0
100
AcDbPolyline
 90
        5
 70
     0
 43
0.0
 10
76.72499999999999
 20
158.975
 10
73.425
 20
159.4
 10
68.125
 20
158.6
 10
63.225
 20
159.4
 10
59.125
 20
158.975
  0
LWPOLYLINE
  5
5DD
330
11D
100
AcDbEntity
  8
0
100
AcDbPolyline
 90
        4
 70
     0
 43
0.0
 10
77.15
 20
140.55
 10
71.4
 20
140.15
 10
65.275
 20
141.4
 10
58.725
 20
140.975
  0
LWPOLYLINE
  5
5E8
330
11D
100
AcDbEntity
  8
0
100
AcDbPolyline
 90
        3
 70
     0
 43
0.0
 10
77.52500000000001
 20
119.275
 10
67.72499999999999
 20
118.9
 10
57.9
 20
118.9
  0
LWPOLYLINE
  5
5F1
330
11D
100
AcDbEntity
  8
0
100
AcDbPolyline
 90
        3
 70
     0
 43
0.4
 10
77.52500000000001
 20
108.625
 10
64.84999999999999
 20
109.05
 10
58.3
 20
108.625
  0
LWPOLYLINE
  5
5FA
330
11D
100
AcDbEntity
  8
0
100
AcDbPolyline
 90
        3
 70
     0
 43
0.0
 10
86.575
 20
159.4
 10
92.275
 20
160.2
 10
98.42500000000001
 20
159.825
  0
LWPOLYLINE
  5
603
330
11D
100
AcDbEntity
  8
0
100
AcDbPolyline
 90
        6
 70
     0
 43
0.0
 10
78.75
 20
81.225
 10
80.4
 20
81.225
 10
80.4
 20
91.05
 10
83.7
 20
91.05
 10
83.7
 20
81.225
 10
85.29999999999999
 20
81.225
  0
LINE
  5
612
330
11D
100
AcDbEntity
  8
0
370
    20
100
AcDbLine
 10
77.52500000000001
 20
106.6
 30
0.0
 11
61.17499999999999
 21
92.675
 31
0.0
  0
LINE
  5
615
330
11D
100
AcDbEntity
  8
0
370
    20
100
AcDbLine
 10
78.75
 20
89.40000000000001
 30
0.0
 11
66.90000000000001
 21
78.77500000000001
 31
0.0
  0
POINT
  5
618
330
11D
100
AcDbEntity
  8
0
100
AcDbPoint
 10
60.775
 20
177.8
 30
0.0
  0
POINT
  5
61B
330
11D
100
AcDbEntity
  8
0
100
AcDbPoint
 10
65.275
 20
174.525
 30
0.0
  0
POINT
  5
61E
330
11D
100
AcDbEntity
  8
0
100
AcDbPoint
 10
66.90000000000001
 20
178.225
 30
0.0
  0
POINT
  5
621
330
11D
100
AcDbEntity
  8
0
100
AcDbPoint
 10
72.625
 20
175.775
 30
0.0
  0
POINT
  5
624
330
11D
100
AcDbEntity
  8
0
100
AcDbPoint
 10
73.04999999999999
 20
170.025
 30
0.0
  0
POINT
  5
627
330
11D
100
AcDbEntity
  8
0
100
AcDbPoint
 10
68.95
 20
170.45
 30
0.0
  0
POINT
  5
62A
330
11D
100
AcDbEntity
  8
0
100
AcDbPoint
 10
61.575
 20
169.625
 30
0.0
  0
POINT
  5
62D
330
11D
100
AcDbEntity
  8
0
100
AcDbPoint
 10
65.275
 20
165.525
 30
0.0
  0
POINT
  5
630
330
11D
100
AcDbEntity
  8
0
100
AcDbPoint
 10
61.17499999999999
 20
162.275
 30
0.0
  0
POINT
  5
633
330
11D
100
AcDbEntity
  8
0
100
AcDbPoint
 10
68.125
 20
160.625
 30
0.0
  0
POINT
  5
636
330
11D
100
AcDbEntity
  8
0
100
AcDbPoint
 10
70.59999999999999
 20
164.3
 30
0.0
  0
POINT
  5
639
330
11D
100
AcDbEntity
  8
0
100
AcDbPoint
 10
75.925
 20
161.05
 30
0.0
  0
POINT
  5
63C
330
11D
100
AcDbEntity
  8
0
100
AcDbPoint
 10
75.075
 20
166.35
 30
0.0
  0
LINE
  5
63F
330
11D
100
AcDbEntity
  8
0
370
    20
100
AcDbLine
 10
60.35
 20
157.3249999999999
 30
0.0
 11
62.825
 21
157.3249999999999
 31
0.0
  0
LINE
  5
642
330
11D
100
AcDbEntity
  8
0
370
    20
100
AcDbLine
 10
64.84999999999999
 20
157.3249999999999
 30
0.0
 11
67.3
 21
157.3249999999999
 31
0.0
  0
LINE
  5
645
330
11D
100
AcDbEntity
  8
0
370
    20
100
AcDbLine
 10
69.375
 20
157.3249999999999
 30
0.0
 11
71.825
 21
157.3249999999999
 31
0.0
  0
LINE
  5
648
330
11D
100
AcDbEntity
  8
0
370
    20
100
AcDbLine
 10
73.84999999999999
 20
157.3249999999999
 30
0.0
 11
76.29999999999999
 21
157.3249999999999
 31
0.0
  0
LINE
  5
64B
330
11D
100
AcDbEntity
  8
0
370
    20
100
AcDbLine
 10
59.525
 20
155.3
 30
0.0
 11
62.0
 21
155.3
 31
0.0
  0
LINE
  5
64E
330
11D
100
AcDbEntity
  8
0
370
    20
100
AcDbLine
 10
64.05
 20
155.3
 30
0.0
 11
66.5
 21
155.3
 31
0.0
  0
LINE
  5
651
330
11D
100
AcDbEntity
  8
0
370
    20
100
AcDbLine
 10
68.525
 20
155.3
 30
0.0
 11
70.975
 21
155.3
 31
0.0
  0
LINE
  5
654
330
11D
100
AcDbEntity
  8
0
370
    20
100
AcDbLine
 10
73.04999999999999
 20
155.3
 30
0.0
 11
75.5
 21
155.3
 31
0.0
  0
LINE
  5
657
330
11D
100
AcDbEntity
  8
0
370
    20
100
AcDbLine
 10
60.775
 20
153.275
 30
0.0
 11
63.225
 21
153.275
 31
0.0
  0
LINE
  5
65A
330
11D
100
AcDbEntity
  8
0
370
    20
100
AcDbLine
 10
65.275
 20
153.275
 30
0.0
 11
67.72499999999999
 21
153.275
 31
0.0
  0
LINE
  5
65D
330
11D
100
AcDbEntity
  8
0
370
    20
100
AcDbLine
 10
69.75
 20
153.275
 30
0.0
 11
72.2
 21
153.275
 31
0.0
  0
LINE
  5
660
330
11D
100
AcDbEntity
  8
0
370
    20
100
AcDbLine
 10
74.27500000000001
 20
153.275
 30
0.0
 11
76.72499999999999
 21
153.275
 31
0.0
  0
LINE
  5
663
330
11D
100
AcDbEntity
  8
0
370
    20
100
AcDbLine
 10
59.525
 20
151.2
 30
0.0
 11
62.0
 21
151.2
 31
0.0
  0
LINE
  5
666
330
11D
100
AcDbEntity
  8
0
370
    20
100
AcDbLine
 10
64.05
 20
151.2
 30
0.0
 11
66.5
 21
151.2
 31
0.0
  0
LINE
  5
669
330
11D
100
AcDbEntity
  8
0
370
    20
100
AcDbLine
 10
68.525
 20
151.2
 30
0.0
 11
70.975
 21
151.2
 31
0.0
  0
LINE
  5
66C
330
11D
100
AcDbEntity
  8
0
370
    20
100
AcDbLine
 10
73.04999999999999
 20
151.2
 30
0.0
 11
75.5
 21
151.2
 31
0.0
  0
LINE
  5
66F
330
11D
100
AcDbEntity
  8
0
370
    20
100
AcDbLine
 10
60.775
 20
149.175
 30
0.0
 11
63.225
 21
149.175
 31
0.0
  0
LINE
  5
672
330
11D
100
AcDbEntity
  8
0
370
    20
100
AcDbLine
 10
65.275
 20
149.175
 30
0.0
 11
67.72499999999999
 21
149.175
 31
0.0
  0
LINE
  5
675
330
11D
100
AcDbEntity
  8
0
370
    20
100
AcDbLine
 10
69.75
 20
149.175
 30
0.0
 11
72.2
 21
149.175
 31
0.0
  0
LINE
  5
678
330
11D
100
AcDbEntity
  8
0
370
    20
100
AcDbLine
 10
74.27500000000001
 20
149.175
 30
0.0
 11
76.72499999999999
 21
149.175
 31
0.0
  0
LINE
  5
67B
330
11D
100
AcDbEntity
  8
0
370
    20
100
AcDbLine
 10
59.125
 20
147.525
 30
0.0
 11
61.575
 21
147.525
 31
0.0
  0
LINE
  5
67E
330
11D
100
AcDbEntity
  8
0
370
    20
100
AcDbLine
 10
63.625
 20
147.525
 30
0.0
 11
66.075
 21
147.525
 31
0.0
  0
LINE
  5
681
330
11D
100
AcDbEntity
  8
0
370
    20
100
AcDbLine
 10
68.125
 20
147.525
 30
0.0
 11
70.59999999999999
 21
147.525
 31
0.0
  0
LINE
  5
684
330
11D
100
AcDbEntity
  8
0
370
    20
100
AcDbLine
 10
72.625
 20
147.525
 30
0.0
 11
75.075
 21
147.525
 31
0.0
  0
LINE
  5
687
330
11D
100
AcDbEntity
  8
0
370
    20
100
AcDbLine
 10
60.775
 20
145.875
 30
0.0
 11
63.225
 21
145.875
 31
0.0
  0
LINE
  5
68A
330
11D
100
AcDbEntity
  8
0
370
    20
100
AcDbLine
 10
65.275
 20
145.875
 30
0.0
 11
67.72499999999999
 21
145.875
 31
0.0
  0
LINE
  5
68D
330
11D
100
AcDbEntity
  8
0
370
    20
100
AcDbLine
 10
69.75
 20
145.875
 30
0.0
 11
72.2
 21
145.875
 31
0.0
  0
LINE
  5
690
330
11D
100
AcDbEntity
  8
0
370
    20
100
AcDbLine
 10
74.27500000000001
 20
145.875
 30
0.0
 11
76.72499999999999
 21
145.875
 31
0.0
  0
LINE
  5
693
330
11D
100
AcDbEntity
  8
0
370
    20
100
AcDbLine
 10
59.125
 20
143.85
 30
0.0
 11
61.575
 21
143.85
 31
0.0
  0
LINE
  5
696
330
11D
100
AcDbEntity
  8
0
370
    20
100
AcDbLine
 10
63.625
 20
143.85
 30
0.0
 11
66.075
 21
143.85
 31
0.0
  0
LINE
  5
699
330
11D
100
AcDbEntity
  8
0
370
    20
100
AcDbLine
 10
68.125
 20
143.85
 30
0.0
 11
70.59999999999999
 21
143.85
 31
0.0
  0
LINE
  5
69C
330
11D
100
AcDbEntity
  8
0
370
    20
100
AcDbLine
 10
72.625
 20
143.85
 30
0.0
 11
75.075
 21
143.85
 31
0.0
  0
LINE
  5
69F
330
11D
100
AcDbEntity
  8
0
370
    20
100
AcDbLine
 10
60.775
 20
142.2
 30
0.0
 11
63.225
 21
142.2
 31
0.0
  0
LINE
  5
6A2
330
11D
100
AcDbEntity
  8
0
370
    20
100
AcDbLine
 10
65.275
 20
142.2
 30
0.0
 11
67.72499999999999
 21
142.2
 31
0.0
  0
LINE
  5
6A5
330
11D
100
AcDbEntity
  8
0
370
    20
100
AcDbLine
 10
69.75
 20
142.2
 30
0.0
 11
72.2
 21
142.2
 31
0.0
  0
LINE
  5
6A8
330
11D
100
AcDbEntity
  8
0
370
    20
100
AcDbLine
 10
74.27500000000001
 20
142.2
 30
0.0
 11
76.72499999999999
 21
142.2
 31
0.0
  0
POINT
  5
6AB
330
11D
100
AcDbEntity
  8
0
100
AcDbPoint
 10
58.725
 20
139.75
 30
0.0
  0
POINT
  5
6AE
330
11D
100
AcDbEntity
  8
0
100
AcDbPoint
 10
62.825
 20
139.325
 30
0.0
  0
POINT
  5
6B1
330
11D
100
AcDbEntity
  8
0
100
AcDbPoint
 10
60.775
 20
136.475
 30
0.0
  0
POINT
  5
6B4
330
11D
100
AcDbEntity
  8
0
100
AcDbPoint
 10
59.125
 20
131.975
 30
0.0
  0
POINT
  5
6B7
330
11D
100
AcDbEntity
  8
0
100
AcDbPoint
 10
62.825
 20
129.925
 30
0.0
  0
POINT
  5
6BA
330
11D
100
AcDbEntity
  8
0
100
AcDbPoint
 10
65.67499999999999
 20
133.6
 30
0.0
  0
POINT
  5
6BD
330
11D
100
AcDbEntity
  8
0
100
AcDbPoint
 10
66.90000000000001
 20
138.1
 30
0.0
  0
POINT
  5
6C0
330
11D
100
AcDbEntity
  8
0
100
AcDbPoint
 10
72.2
 20
134.85
 30
0.0
  0
POINT
  5
6C3
330
11D
100
AcDbEntity
  8
0
100
AcDbPoint
 10
70.59999999999999
 20
132.375
 30
0.0
  0
POINT
  5
6C6
330
11D
100
AcDbEntity
  8
0
100
AcDbPoint
 10
70.175
 20
137.3
 30
0.0
  0
POINT
  5
6C9
330
11D
100
AcDbEntity
  8
0
100
AcDbPoint
 10
64.45
 20
136.875
 30
0.0
  0
POINT
  5
6CC
330
11D
100
AcDbEntity
  8
0
100
AcDbPoint
 10
62.0
 20
133.2
 30
0.0
  0
POINT
  5
6CF
330
11D
100
AcDbEntity
  8
0
100
AcDbPoint
 10
67.3
 20
134.425
 30
0.0
  0
POINT
  5
6D2
330
11D
100
AcDbEntity
  8
0
100
AcDbPoint
 10
74.27500000000001
 20
138.525
 30
0.0
  0
POINT
  5
6D5
330
11D
100
AcDbEntity
  8
0
100
AcDbPoint
 10
75.075
 20
130.75
 30
0.0
  0
POINT
  5
6D8
330
11D
100
AcDbEntity
  8
0
100
AcDbPoint
 10
70.59999999999999
 20
127.05
 30
0.0
  0
POINT
  5
6DB
330
11D
100
AcDbEntity
  8
0
100
AcDbPoint
 10
66.5
 20
131.575
 30
0.0
  0
POINT
  5
6DE
330
11D
100
AcDbEntity
  8
0
100
AcDbPoint
 10
65.275
 20
129.1
 30
0.0
  0
POINT
  5
6E1
330
11D
100
AcDbEntity
  8
0
100
AcDbPoint
 10
60.775
 20
128.275
 30
0.0
  0
POINT
  5
6E4
330
11D
100
AcDbEntity
  8
0
100
AcDbPoint
 10
58.725
 20
125.825
 30
0.0
  0
POINT
  5
6E7
330
11D
100
AcDbEntity
  8
0
100
AcDbPoint
 10
60.35
 20
122.15
 30
0.0
  0
POINT
  5
6EA
330
11D
100
AcDbEntity
  8
0
100
AcDbPoint
 10
58.725
 20
121.35
 30
0.0
  0
POINT
  5
6ED
330
11D
100
AcDbEntity
  8
0
100
AcDbPoint
 10
63.225
 20
125.825
 30
0.0
  0
POINT
  5
6F0
330
11D
100
AcDbEntity
  8
0
100
AcDbPoint
 10
67.72499999999999
 20
127.475
 30
0.0
  0
POINT
  5
6F3
330
11D
100
AcDbEntity
  8
0
100
AcDbPoint
 10
70.975
 20
129.925
 30
0.0
  0
POINT
  5
6F6
330
11D
100
AcDbEntity
  8
0
100
AcDbPoint
 10
73.04999999999999
 20
130.325
 30
0.0
  0
POINT
  5
6F9
330
11D
100
AcDbEntity
  8
0
100
AcDbPoint
 10
75.5
 20
134.85
 30
0.0
  0
POINT
  5
6FC
330
11D
100
AcDbEntity
  8
0
100
AcDbPoint
 10
75.5
 20
126.65
 30
0.0
  0
POINT
  5
6FF
330
11D
100
AcDbEntity
  8
0
100
AcDbPoint
 10
69.75
 20
125.425
 30
0.0
  0
POINT
  5
702
330
11D
100
AcDbEntity
  8
0
100
AcDbPoint
 10
66.5
 20
125.425
 30
0.0
  0
POINT
  5
705
330
11D
100
AcDbEntity
  8
0
100
AcDbPoint
 10
64.84999999999999
 20
122.575
 30
0.0
  0
POINT
  5
708
330
11D
100
AcDbEntity
  8
0
100
AcDbPoint
 10
62.825
 20
120.925
 30
0.0
  0
POINT
  5
70B
330
11D
100
AcDbEntity
  8
0
100
AcDbPoint
 10
66.90000000000001
 20
120.125
 30
0.0
  0
POINT
  5
70E
330
11D
100
AcDbEntity
  8
0
100
AcDbPoint
 10
67.72499999999999
 20
122.95
 30
0.0
  0
POINT
  5
711
330
11D
100
AcDbEntity
  8
0
100
AcDbPoint
 10
73.425
 20
121.35
 30
0.0
  0
POINT
  5
714
330
11D
100
AcDbEntity
  8
0
100
AcDbPoint
 10
70.975
 20
121.35
 30
0.0
  0
POINT
  5
717
330
11D
100
AcDbEntity
  8
0
100
AcDbPoint
 10
72.2
 20
123.8
 30
0.0
  0
POINT
  5
71A
330
11D
100
AcDbEntity
  8
0
100
AcDbPoint
 10
74.27500000000001
 20
123.375
 30
0.0
  0
POINT
  5
71D
330
11D
100
AcDbEntity
  8
0
100
AcDbPoint
 10
77.15
 20
120.925
 30
0.0
  0
POINT
  5
720
330
11D
100
AcDbEntity
  8
0
100
AcDbPoint
 10
76.72499999999999
 20
129.925
 30
0.0
  0
POINT
  5
723
330
11D
100
AcDbEntity
  8
0
100
AcDbPoint
 10
73.84999999999999
 20
132.8
 30
0.0
  0
POINT
  5
726
330
11D
100
AcDbEntity
  8
0
100
AcDbPoint
 10
73.425
 20
136.475
 30
0.0
  0
POINT
  5
729
330
11D
100
AcDbEntity
  8
0
100
AcDbPoint
 10
70.175
 20
135.25
 30
0.0
  0
POINT
  5
72C
330
11D
100
AcDbEntity
  8
0
100
AcDbPoint
 10
67.72499999999999
 20
136.475
 30
0.0
  0
POINT
  5
72F
330
11D
100
AcDbEntity
  8
0
100
AcDbPoint
 10
61.17499999999999
 20
138.1
 30
0.0
  0
POINT
  5
732
330
11D
100
AcDbEntity
  8
0
100
AcDbPoint
 10
67.72499999999999
 20
139.75
 30
0.0
  0
POINT
  5
735
330
11D
100
AcDbEntity
  8
0
100
AcDbPoint
 10
71.4
 20
139.325
 30
0.0
  0
POINT
  5
738
330
11D
100
AcDbEntity
  8
0
100
AcDbPoint
 10
61.575
 20
124.6
 30
0.0
  0
POINT
  5
73B
330
11D
100
AcDbEntity
  8
0
100
AcDbPoint
 10
68.95
 20
120.925
 30
0.0
  0
POINT
  5
73E
330
11D
100
AcDbEntity
  8
0
100
AcDbPoint
 10
72.625
 20
127.475
 30
0.0
  0
POINT
  5
741
330
11D
100
AcDbEntity
  8
0
100
AcDbPoint
 10
68.125
 20
130.325
 30
0.0
  0
POINT
  5
744
330
11D
100
AcDbEntity
  8
0
100
AcDbPoint
 10
66.5
 20
134.425
 30
0.0
  0
POINT
  5
747
330
11D
100
AcDbEntity
  8
0
100
AcDbPoint
 10
75.5
 20
138.1
 30
0.0
  0
POINT
  5
74A
330
11D
100
AcDbEntity
  8
0
100
AcDbPoint
 10
60.775
 20
131.575
 30
0.0
  0
POINT
  5
74D
330
11D
100
AcDbEntity
  8
0
100
AcDbPoint
 10
58.725
 20
135.25
 30
0.0
  0
POINT
  5
750
330
11D
100
AcDbEntity
  8
0
100
AcDbPoint
 10
64.84999999999999
 20
127.05
 30
0.0
  0
POINT
  5
753
330
11D
100
AcDbEntity
  8
0
100
AcDbPoint
 10
75.925
 20
124.2
 30
0.0
  0
POINT
  5
756
330
11D
100
AcDbEntity
  8
0
100
AcDbPoint
 10
73.04999999999999
 20
125.825
 30
0.0
  0
POINT
  5
759
330
11D
100
AcDbEntity
  8
0
100
AcDbPoint
 10
75.075
 20
128.7
 30
0.0
  0
POINT
  5
75C
330
11D
100
AcDbEntity
  8
0
100
AcDbPoint
 10
61.575
 20
111.5
 30
0.0
  0
POINT
  5
75F
330
11D
100
AcDbEntity
  8
0
100
AcDbPoint
 10
66.90000000000001
 20
110.7
 30
0.0
  0
POINT
  5
762
330
11D
100
AcDbEntity
  8
0
100
AcDbPoint
 10
70.59999999999999
 20
113.575
 30
0.0
  0
POINT
  5
765
330
11D
100
AcDbEntity
  8
0
100
AcDbPoint
 10
74.7
 20
111.075
 30
0.0
  0
POINT
  5
768
330
11D
100
AcDbEntity
  8
0
100
AcDbPoint
 10
64.45
 20
114.375
 30
0.0
  0
POINT
  5
76B
330
11D
100
AcDbEntity
  8
0
100
AcDbPoint
 10
59.125
 20
115.175
 30
0.0
  0
POINT
  5
76E
330
11D
100
AcDbEntity
  8
0
100
AcDbPoint
 10
74.27500000000001
 20
115.175
 30
0.0
  0
POINT
  5
771
330
11D
100
AcDbEntity
  8
0
100
AcDbPoint
 10
68.525
 20
116.4
 30
0.0
  0
POINT
  5
774
330
11D
100
AcDbEntity
  8
0
100
AcDbPoint
 10
70.975
 20
110.275
 30
0.0
  0
POINT
  5
777
330
11D
100
AcDbEntity
  8
0
100
AcDbPoint
 10
61.575
 20
115.6
 30
0.0
  0
POINT
  5
77A
330
11D
100
AcDbEntity
  8
0
100
AcDbPoint
 10
59.125
 20
117.675
 30
0.0
  0
POINT
  5
77D
330
11D
100
AcDbEntity
  8
0
100
AcDbPoint
 10
64.05
 20
117.25
 30
0.0
  0
POINT
  5
780
330
11D
100
AcDbEntity
  8
0
100
AcDbPoint
 10
71.4
 20
117.675
 30
0.0
  0
POINT
  5
783
330
11D
100
AcDbEntity
  8
0
100
AcDbPoint
 10
75.5
 20
117.25
 30
0.0
  0
POINT
  5
786
330
11D
100
AcDbEntity
  8
0
100
AcDbPoint
 10
58.3
 20
110.7
 30
0.0
  0
POINT
  5
789
330
11D
100
AcDbEntity
  8
0
100
AcDbPoint
 10
66.5
 20
117.675
 30
0.0
  0
POINT
  5
78C
330
11D
100
AcDbEntity
  8
0
100
AcDbPoint
 10
66.90000000000001
 20
114.8
 30
0.0
  0
POINT
  5
78F
330
11D
100
AcDbEntity
  8
0
100
AcDbPoint
 10
64.45
 20
111.5
 30
0.0
  0
POINT
  5
792
330
11D
100
AcDbEntity
  8
0
100
AcDbPoint
 10
68.125
 20
112.725
 30
0.0
  0
POINT
  5
795
330
11D
100
AcDbEntity
  8
0
100
AcDbPoint
 10
69.375
 20
110.275
 30
0.0
  0
POINT
  5
798
330
11D
100
AcDbEntity
  8
0
100
AcDbPoint
 10
73.04999999999999
 20
112.725
 30
0.0
  0
POINT
  5
79B
330
11D
100
AcDbEntity
  8
0
100
AcDbPoint
 10
71.825
 20
116.025
 30
0.0
  0
POINT
  5
79E
330
11D
100
AcDbEntity
  8
0
100
AcDbPoint
 10
73.84999999999999
 20
118.05
 30
0.0
  0
POINT
  5
7A1
330
11D
100
AcDbEntity
  8
0
100
AcDbPoint
 10
76.29999999999999
 20
116.025
 30
0.0
  0
POINT
  5
7A4
330
11D
100
AcDbEntity
  8
0
100
AcDbPoint
 10
76.72499999999999
 20
113.575
 30
0.0
  0
POINT
  5
7A7
330
11D
100
AcDbEntity
  8
0
100
AcDbPoint
 10
59.125
 20
112.725
 30
0.0
  0
POINT
  5
7AA
330
11D
100
AcDbEntity
  8
0
100
AcDbPoint
 10
61.17499999999999
 20
113.95
 30
0.0
  0
POINT
  5
7AD
330
11D
100
AcDbEntity
  8
0
100
AcDbPoint
 10
61.575
 20
117.675
 30
0.0
  0
POINT
  5
7B0
330
11D
100
AcDbEntity
  8
0
100
AcDbPoint
 10
65.275
 20
116.4
 30
0.0
  0
POINT
  5
7B3
330
11D
100
AcDbEntity
  8
0
100
AcDbPoint
 10
72.2
 20
110.275
 30
0.0
  0
POINT
  5
7B6
330
11D
100
AcDbEntity
  8
0
100
AcDbPoint
 10
76.29999999999999
 20
109.85
 30
0.0
  0
POINT
  5
7B9
330
11D
100
AcDbEntity
  8
0
100
AcDbPoint
 10
67.72499999999999
 20
78.34999999999999
 30
0.0
  0
POINT
  5
7BC
330
11D
100
AcDbEntity
  8
0
100
AcDbPoint
 10
69.75
 20
76.325
 30
0.0
  0
POINT
  5
7BF
330
11D
100
AcDbEntity
  8
0
100
AcDbPoint
 10
72.2
 20
76.325
 30
0.0
  0
POINT
  5
7C2
330
11D
100
AcDbEntity
  8
0
100
AcDbPoint
 10
75.075
 20
76.325
 30
0.0
  0
POINT
  5
7C5
330
11D
100
AcDbEntity
  8
0
100
AcDbPoint
 10
77.52500000000001
 20
76.325
 30
0.0
  0
POINT
  5
7C8
330
11D
100
AcDbEntity
  8
0
100
AcDbPoint
 10
82.05
 20
75.47499999999999
 30
0.0
  0
POINT
  5
7CB
330
11D
100
AcDbEntity
  8
0
100
AcDbPoint
 10
80.4
 20
76.325
 30
0.0
  0
POINT
  5
7CE
330
11D
100
AcDbEntity
  8
0
100
AcDbPoint
 10
83.7
 20
75.9
 30
0.0
  0
POINT
  5
7D1
330
11D
100
AcDbEntity
  8
0
100
AcDbPoint
 10
86.575
 20
76.325
 30
0.0
  0
POINT
  5
7D4
330
11D
100
AcDbEntity
  8
0
100
AcDbPoint
 10
86.95
 20
80.425
 30
0.0
  0
POINT
  5
7D7
330
11D
100
AcDbEntity
  8
0
100
AcDbPoint
 10
85.72499999999999
 20
80.425
 30
0.0
  0
POINT
  5
7DA
330
11D
100
AcDbEntity
  8
0
100
AcDbPoint
 10
86.15
 20
77.97499999999999
 30
0.0
  0
POINT
  5
7DD
330
11D
100
AcDbEntity
  8
0
100
AcDbPoint
 10
83.7
 20
78.77500000000001
 30
0.0
  0
POINT
  5
7E0
330
11D
100
AcDbEntity
  8
0
100
AcDbPoint
 10
79.59999999999999
 20
79.575
 30
0.0
  0
POINT
  5
7E3
330
11D
100
AcDbEntity
  8
0
100
AcDbPoint
 10
80.82500000000001
 20
79.575
 30
0.0
  0
POINT
  5
7E6
330
11D
100
AcDbEntity
  8
0
100
AcDbPoint
 10
83.275
 20
80.0
 30
0.0
  0
POINT
  5
7E9
330
11D
100
AcDbEntity
  8
0
100
AcDbPoint
 10
80.82500000000001
 20
77.125
 30
0.0
  0
POINT
  5
7EC
330
11D
100
AcDbEntity
  8
0
100
AcDbPoint
 10
84.50000000000001
 20
76.75
 30
0.0
  0
POINT
  5
7EF
330
11D
100
AcDbEntity
  8
0
100
AcDbPoint
 10
84.92499999999999
 20
79.2
 30
0.0
  0
POINT
  5
7F2
330
11D
100
AcDbEntity
  8
0
100
AcDbPoint
 10
80.82500000000001
 20
78.34999999999999
 30
0.0
  0
POINT
  5
7F5
330
11D
100
AcDbEntity
  8
0
100
AcDbPoint
 10
82.85
 20
77.54999999999999
 30
0.0
  0
POINT
  5
7F8
330
11D
100
AcDbEntity
  8
0
100
AcDbPoint
 10
80.82500000000001
 20
90.22499999999999
 30
0.0
  0
POINT
  5
7FB
330
11D
100
AcDbEntity
  8
0
100
AcDbPoint
 10
82.475
 20
90.22499999999999
 30
0.0
  0
POINT
  5
7FE
330
11D
100
AcDbEntity
  8
0
100
AcDbPoint
 10
82.475
 20
88.59999999999999
 30
0.0
  0
POINT
  5
801
330
11D
100
AcDbEntity
  8
0
100
AcDbPoint
 10
81.25
 20
89.0
 30
0.0
  0
POINT
  5
804
330
11D
100
AcDbEntity
  8
0
100
AcDbPoint
 10
81.25
 20
87.34999999999999
 30
0.0
  0
POINT
  5
807
330
11D
100
AcDbEntity
  8
0
100
AcDbPoint
 10
82.85
 20
86.54999999999999
 30
0.0
  0
POINT
  5
80A
330
11D
100
AcDbEntity
  8
0
100
AcDbPoint
 10
82.85
 20
84.9
 30
0.0
  0
POINT
  5
80D
330
11D
100
AcDbEntity
  8
0
100
AcDbPoint
 10
80.82500000000001
 20
85.72499999999999
 30
0.0
  0
POINT
  5
810
330
11D
100
AcDbEntity
  8
0
100
AcDbPoint
 10
80.82500000000001
 20
83.67499999999999
 30
0.0
  0
POINT
  5
813
330
11D
100
AcDbEntity
  8
0
100
AcDbPoint
 10
82.85
 20
83.275
 30
0.0
  0
POINT
  5
816
330
11D
100
AcDbEntity
  8
0
100
AcDbPoint
 10
81.25
 20
82.025
 30
0.0
  0
POINT
  5
819
330
11D
100
AcDbEntity
  8
0
100
AcDbPoint
 10
82.475
 20
82.025
 30
0.0
  0
POINT
  5
81C
330
11D
100
AcDbEntity
  8
0
100
AcDbPoint
 10
81.25
 20
80.425
 30
0.0
  0
POINT
  5
81F
330
11D
100
AcDbEntity
  8
0
100
AcDbPoint
 10
83.275
 20
80.8
 30
0.0
  0
POINT
  5
822
330
11D
100
AcDbEntity
  8
0
100
AcDbPoint
 10
77.95
 20
87.77500000000001
 30
0.0
  0
POINT
  5
825
330
11D
100
AcDbEntity
  8
0
100
AcDbPoint
 10
77.95
 20
85.72499999999999
 30
0.0
  0
POINT
  5
828
330
11D
100
AcDbEntity
  8
0
100
AcDbPoint
 10
76.72499999999999
 20
86.54999999999999
 30
0.0
  0
POINT
  5
82B
330
11D
100
AcDbEntity
  8
0
100
AcDbPoint
 10
75.5
 20
85.72499999999999
 30
0.0
  0
POINT
  5
82E
330
11D
100
AcDbEntity
  8
0
100
AcDbPoint
 10
73.84999999999999
 20
83.67499999999999
 30
0.0
  0
POINT
  5
831
330
11D
100
AcDbEntity
  8
0
100
AcDbPoint
 10
71.4
 20
81.65
 30
0.0
  0
POINT
  5
834
330
11D
100
AcDbEntity
  8
0
100
AcDbPoint
 10
69.375
 20
79.575
 30
0.0
  0
POINT
  5
837
330
11D
100
AcDbEntity
  8
0
100
AcDbPoint
 10
72.625
 20
78.34999999999999
 30
0.0
  0
POINT
  5
83A
330
11D
100
AcDbEntity
  8
0
100
AcDbPoint
 10
70.59999999999999
 20
78.77500000000001
 30
0.0
  0
POINT
  5
83D
330
11D
100
AcDbEntity
  8
0
100
AcDbPoint
 10
72.625
 20
80.425
 30
0.0
  0
POINT
  5
840
330
11D
100
AcDbEntity
  8
0
100
AcDbPoint
 10
75.925
 20
82.45
 30
0.0
  0
POINT
  5
843
330
11D
100
AcDbEntity
  8
0
100
AcDbPoint
 10
74.27500000000001
 20
81.225
 30
0.0
  0
POINT
  5
846
330
11D
100
AcDbEntity
  8
0
100
AcDbPoint
 10
74.7
 20
79.575
 30
0.0
  0
POINT
  5
849
330
11D
100
AcDbEntity
  8
0
100
AcDbPoint
 10
77.15
 20
78.77500000000001
 30
0.0
  0
POINT
  5
84C
330
11D
100
AcDbEntity
  8
0
100
AcDbPoint
 10
75.075
 20
78.34999999999999
 30
0.0
  0
POINT
  5
84F
330
11D
100
AcDbEntity
  8
0
100
AcDbPoint
 10
78.375
 20
77.54999999999999
 30
0.0
  0
POINT
  5
852
330
11D
100
AcDbEntity
  8
0
100
AcDbPoint
 10
77.15
 20
80.8
 30
0.0
  0
POINT
  5
855
330
11D
100
AcDbEntity
  8
0
100
AcDbPoint
 10
76.72499999999999
 20
84.50000000000001
 30
0.0
  0
POINT
  5
858
330
11D
100
AcDbEntity
  8
0
100
AcDbPoint
 10
75.5
 20
84.1
 30
0.0
  0
POINT
  5
85B
330
11D
100
AcDbEntity
  8
0
100
AcDbPoint
 10
77.52500000000001
 20
83.67499999999999
 30
0.0
  0
POINT
  5
85E
330
11D
100
AcDbEntity
  8
0
100
AcDbPoint
 10
78.375
 20
80.0
 30
0.0
  0
LINE
  5
861
330
11D
100
AcDbEntity
  8
0
370
    20
100
AcDbLine
 10
78.75
 20
104.525
 30
0.0
 11
62.4
 21
90.65000000000001
 31
0.0
  0
LINE
  5
864
330
11D
100
AcDbEntity
  8
0
370
    20
100
AcDbLine
 10
78.75
 20
101.7
 30
0.0
 11
62.825
 21
88.175
 31
0.0
  0
LINE
  5
867
330
11D
100
AcDbEntity
  8
0
370
    20
100
AcDbLine
 10
78.75
 20
98.825
 30
0.0
 11
63.625
 21
86.125
 31
0.0
  0
LINE
  5
86A
330
11D
100
AcDbEntity
  8
0
370
    20
100
AcDbLine
 10
78.75
 20
95.95
 30
0.0
 11
64.84999999999999
 21
84.1
 31
0.0
  0
LINE
  5
86D
330
11D
100
AcDbEntity
  8
0
370
    20
100
AcDbLine
 10
78.75
 20
92.675
 30
0.0
 11
65.67499999999999
 21
81.225
 31
0.0
  0
POINT
  5
870
330
11D
100
AcDbEntity
  8
0
100
AcDbPoint
 10
59.125
 20
98.0
 30
0.0
  0
POINT
  5
873
330
11D
100
AcDbEntity
  8
0
100
AcDbPoint
 10
62.4
 20
101.275
 30
0.0
  0
POINT
  5
876
330
11D
100
AcDbEntity
  8
0
100
AcDbPoint
 10
66.075
 20
104.525
 30
0.0
  0
POINT
  5
879
330
11D
100
AcDbEntity
  8
0
100
AcDbPoint
 10
69.75
 20
107.825
 30
0.0
  0
POINT
  5
87C
330
11D
100
AcDbEntity
  8
0
100
AcDbPoint
 10
57.9
 20
105.375
 30
0.0
  0
POINT
  5
87F
330
11D
100
AcDbEntity
  8
0
100
AcDbPoint
 10
61.17499999999999
 20
107.825
 30
0.0
  0
LINE
  5
882
330
11D
100
AcDbEntity
  8
0
 62
     7
370
    20
100
AcDbLine
 10
59.95
 20
93.925
 30
0.0
 11
75.925
 21
108.25
 31
0.0
  0
LINE
  5
885
330
11D
100
AcDbEntity
  8
0
 62
     7
370
    20
100
AcDbLine
 10
72.625
 20
108.25
 30
0.0
 11
59.125
 21
95.95
 31
0.0
  0
LINE
  5
888
330
11D
100
AcDbEntity
  8
0
 62
     7
370
    20
100
AcDbLine
 10
57.9
 20
99.22499999999999
 30
0.0
 11
68.125
 21
108.625
 31
0.0
  0
LINE
  5
88B
330
11D
100
AcDbEntity
  8
0
 62
     7
370
    20
100
AcDbLine
 10
64.45
 20
108.625
 30
0.0
 11
57.9
 21
102.925
 31
0.0
  0
POINT
  5
88E
330
11D
100
AcDbEntity
  8
0
100
AcDbPoint
 10
58.3
 20
107.025
 30
0.0
  0
POINT
  5
891
330
11D
100
AcDbEntity
  8
0
100
AcDbPoint
 10
59.525
 20
106.175
 30
0.0
  0
POINT
  5
894
330
11D
100
AcDbEntity
  8
0
100
AcDbPoint
 10
60.35
 20
100.05
 30
0.0
  0
POINT
  5
897
330
11D
100
AcDbEntity
  8
0
100
AcDbPoint
 10
64.05
 20
102.925
 30
0.0
  0
POINT
  5
89A
330
11D
100
AcDbEntity
  8
0
100
AcDbPoint
 10
67.3
 20
105.375
 30
0.0
  0
POINT
  5
89D
330
11D
100
AcDbEntity
  8
0
100
AcDbPoint
 10
67.72499999999999
 20
107.025
 30
0.0
  0
POINT
  5
8A0
330
11D
100
AcDbEntity
  8
0
100
AcDbPoint
 10
68.95
 20
106.6
 30
0.0
  0
LINE
  5
8A3
330
11D
100
AcDbEntity
  8
0
  6
DASHED
 62
     7
370
    20
100
AcDbLine
 10
66.075
 20
108.625
 30
0.0
 11
57.9
 21
100.85
 31
0.0
  0
LINE
  5
8A6
330
11D
100
AcDbEntity
  8
0
  6
DASHED
 62
     7
370
    20
100
AcDbLine
 10
76.72499999999999
 20
107.025
 30
0.0
 11
60.775
 21
93.925
 31
0.0
  0
LINE
  5
8A9
330
11D
100
AcDbEntity
  8
0
  6
DASHED
 62
     7
370
    20
100
AcDbLine
 10
59.95
 20
95.54999999999999
 30
0.0
 11
74.27500000000001
 21
108.25
 31
0.0
  0
MTEXT
  5
8AC
330
11D
100
AcDbEntity
  8
0
100
AcDbMText
 10
90.875
 20
91.97499999999999
 30
0.0
 40
2.38125
 41
11.43
 46
0.0
 71
     1
 72
     5
  1
{\fMS Mincho|b0|i0|c128|p17;\T1.5;コア}
  7
BIGFONT
 73
     1
 44
1.198568999999999
  0
LINE
  5
8AF
330
11D
100
AcDbEntity
  8
0
370
    40
100
AcDbLine
 10
84.92499999999999
 20
179.45
 30
0.0
 11
84.92499999999999
 21
106.175
 31
0.0
  0
LINE
  5
8B2
330
11D
100
AcDbEntity
  8
0
370
    40
100
AcDbLine
 10
78.375
 20
179.45
 30
0.0
 11
78.375
 21
106.175
 31
0.0
  0
POINT
  5
8B5
330
11D
100
AcDbEntity
  8
0
100
AcDbPoint
 10
59.95
 20
174.525
 30
0.0
  0
POINT
  5
8B8
330
11D
100
AcDbEntity
  8
0
100
AcDbPoint
 10
62.4
 20
175.35
 30
0.0
  0
POINT
  5
8BB
330
11D
100
AcDbEntity
  8
0
100
AcDbPoint
 10
63.625
 20
179.025
 30
0.0
  0
POINT
  5
8BE
330
11D
100
AcDbEntity
  8
0
100
AcDbPoint
 10
67.3
 20
175.775
 30
0.0
  0
POINT
  5
8C1
330
11D
100
AcDbEntity
  8
0
100
AcDbPoint
 10
70.175
 20
173.725
 30
0.0
  0
POINT
  5
8C4
330
11D
100
AcDbEntity
  8
0
100
AcDbPoint
 10
70.175
 20
177.8
 30
0.0
  0
POINT
  5
8C7
330
11D
100
AcDbEntity
  8
0
100
AcDbPoint
 10
74.7
 20
177.8
 30
0.0
  0
POINT
  5
8CA
330
11D
100
AcDbEntity
  8
0
100
AcDbPoint
 10
74.7
 20
172.075
 30
0.0
  0
POINT
  5
8CD
330
11D
100
AcDbEntity
  8
0
100
AcDbPoint
 10
61.575
 20
172.075
 30
0.0
  0
POINT
  5
8D0
330
11D
100
AcDbEntity
  8
0
100
AcDbPoint
 10
64.84999999999999
 20
171.675
 30
0.0
  0
POINT
  5
8D3
330
11D
100
AcDbEntity
  8
0
100
AcDbPoint
 10
64.05
 20
168.4
 30
0.0
  0
POINT
  5
8D6
330
11D
100
AcDbEntity
  8
0
100
AcDbPoint
 10
59.525
 20
166.35
 30
0.0
  0
POINT
  5
8D9
330
11D
100
AcDbEntity
  8
0
100
AcDbPoint
 10
62.0
 20
164.725
 30
0.0
  0
POINT
  5
8DC
330
11D
100
AcDbEntity
  8
0
100
AcDbPoint
 10
63.625
 20
162.275
 30
0.0
  0
POINT
  5
8DF
330
11D
100
AcDbEntity
  8
0
100
AcDbPoint
 10
66.5
 20
162.275
 30
0.0
  0
POINT
  5
8E2
330
11D
100
AcDbEntity
  8
0
100
AcDbPoint
 10
67.3
 20
166.75
 30
0.0
  0
POINT
  5
8E5
330
11D
100
AcDbEntity
  8
0
100
AcDbPoint
 10
70.59999999999999
 20
167.575
 30
0.0
  0
POINT
  5
8E8
330
11D
100
AcDbEntity
  8
0
100
AcDbPoint
 10
73.84999999999999
 20
163.5
 30
0.0
  0
POINT
  5
8EB
330
11D
100
AcDbEntity
  8
0
100
AcDbPoint
 10
70.975
 20
161.05
 30
0.0
  0
POINT
  5
8EE
330
11D
100
AcDbEntity
  8
0
100
AcDbPoint
 10
72.625
 20
167.175
 30
0.0
  0
POINT
  5
8F1
330
11D
100
AcDbEntity
  8
0
100
AcDbPoint
 10
75.925
 20
169.625
 30
0.0
  0
POINT
  5
8F4
330
11D
100
AcDbEntity
  8
0
100
AcDbPoint
 10
75.5
 20
175.35
 30
0.0
  0
POINT
  5
8F7
330
11D
100
AcDbEntity
  8
0
100
AcDbPoint
 10
67.72499999999999
 20
164.3
 30
0.0
  0
LINE
  5
8FA
330
11D
100
AcDbEntity
  8
0
370
    40
100
AcDbLine
 10
43.15
 20
199.525
 30
0.0
 11
43.15
 21
193.35
 31
0.0
  0
LINE
  5
8FD
330
11D
100
AcDbEntity
  8
0
370
    40
100
AcDbLine
 10
46.45
 20
201.55
 30
0.0
 11
46.45
 21
202.775
 31
0.0
  0
LINE
  5
900
330
11D
100
AcDbEntity
  8
0
370
    40
100
AcDbLine
 10
47.25
 20
201.55
 30
0.0
 11
47.25
 21
202.775
 31
0.0
  0
LINE
  5
903
330
11D
100
AcDbEntity
  8
0
370
    40
100
AcDbLine
 10
48.10076767707244
 20
201.5463707747085
 30
0.0
 11
48.1
 21
202.775
 31
0.0
  0
LINE
  5
906
330
11D
100
AcDbEntity
  8
0
370
    60
100
AcDbLine
 10
50.125
 20
196.65
 30
0.0
 11
55.025
 21
196.65
 31
0.0
  0
LINE
  5
909
330
11D
100
AcDbEntity
  8
0
370
    20
100
AcDbLine
 10
55.025
 20
197.875
 30
0.0
 11
50.125
 21
197.875
 31
0.0
  0
LINE
  5
90C
330
11D
100
AcDbEntity
  8
0
370
    20
100
AcDbLine
 10
50.125
 20
195.425
 30
0.0
 11
55.025
 21
195.425
 31
0.0
  0
LINE
  5
90F
330
11D
100
AcDbEntity
  8
0
370
    20
100
AcDbLine
 10
57.075
 20
198.25
 30
0.0
 11
59.125
 21
198.25
 31
0.0
  0
LINE
  5
912
330
11D
100
AcDbEntity
  8
0
370
    20
100
AcDbLine
 10
59.125
 20
198.25
 30
0.0
 11
59.125
 21
189.25
 31
0.0
  0
MTEXT
  5
915
330
11D
100
AcDbEntity
  8
0
100
AcDbMText
 10
47.625
 20
271.3
 30
0.0
 40
1.85625
 41
22.275
 46
0.0
 71
     1
 72
     5
  1
\fＭＳ 明朝|b0|i0|c128|p17;\H1.8563;\T1.8854;三脚やぐ\T3.3054;ら
  7
BIGFONT
 73
     1
 44
1.185353
  0
LWPOLYLINE
  5
918
330
11D
100
AcDbEntity
  8
0
100
AcDbPolyline
 90
        4
 70
     1
 43
0.0
 10
82.85
 20
264.975
 10
82.85
 20
264.175
 10
84.075
 20
264.175
 10
84.075
 20
264.975
  0
MTEXT
  5
923
330
11D
100
AcDbEntity
  8
0
100
AcDbMText
 10
52.375
 20
245.875
 30
0.0
 40
2.38125
 41
17.145
 46
0.0
 71
     1
 72
     5
  1
{\fMS Mincho|b0|i0|c128|p17;\T1.5;巻上機}
  7
BIGFONT
 73
     1
 44
1.198568999999999
  0
LWPOLYLINE
  5
926
330
11D
100
AcDbEntity
  8
0
100
AcDbPolyline
 90
        3
 70
     0
 43
0.0
 10
40.325
 20
177.8
 10
47.25
 20
195.8
 10
45.22499999999999
 20
193.35
  0
LWPOLYLINE
  5
92F
330
11D
100
AcDbEntity
  8
0
100
AcDbPolyline
 90
        3
 70
     0
 43
0.0
 10
53.79999999999999
 20
177.8
 10
61.17499999999999
 20
195.0
 10
58.725
 20
192.125
  0
LWPOLYLINE
  5
938
330
11D
100
AcDbEntity
  8
0
100
AcDbPolyline
 90
        3
 70
     0
 43
0.0
 10
68.525
 20
267.85
 10
74.27500000000001
 20
265.775
 10
71.825
 20
267.85
  0
LWPOLYLINE
  5
941
330
11D
100
AcDbEntity
  8
0
100
AcDbPolyline
 90
        3
 70
     0
 43
0.0
 10
91.47499999999999
 20
272.325
 10
83.7
 20
270.725
 10
86.95
 20
272.325
  0
LWPOLYLINE
  5
94A
330
11D
100
AcDbEntity
  8
0
100
AcDbPolyline
 90
        3
 70
     0
 43
0.0
 10
92.275
 20
262.525
 10
84.50000000000001
 20
261.3
 10
88.175
 20
262.925
  0
LWPOLYLINE
  5
953
330
11D
100
AcDbEntity
  8
0
100
AcDbPolyline
 90
        3
 70
     0
 43
0.0
 10
93.1
 20
243.275
 10
84.075
 20
240.025
 10
86.95
 20
242.05
  0
LWPOLYLINE
  5
95C
330
11D
100
AcDbEntity
  8
0
100
AcDbPolyline
 90
        3
 70
     0
 43
0.0
 10
105.775
 20
222.4
 10
100.875
 20
219.55
 10
102.925
 20
222.0
  0
LWPOLYLINE
  5
965
330
11D
100
AcDbEntity
  8
0
100
AcDbPolyline
 90
        3
 70
     0
 43
0.0
 10
86.23100427462702
 20
192.6270554880149
 10
84.92499999999999
 20
188.025
 10
86.15
 20
189.25
  0
LWPOLYLINE
  5
96E
330
11D
100
AcDbEntity
  8
0
100
AcDbPolyline
 90
        3
 70
     0
 43
0.0
 10
120.525
 20
174.525
 10
115.625
 20
174.525
 10
118.45
 20
175.35
  0
LWPOLYLINE
  5
977
330
11D
100
AcDbEntity
  8
0
100
AcDbPolyline
 90
        3
 70
     0
 43
0.0
 10
90.25
 20
163.075
 10
85.72499999999999
 20
165.525
 10
88.59999999999999
 20
165.125
  0
LWPOLYLINE
  5
980
330
11D
100
AcDbEntity
  8
0
100
AcDbPolyline
 90
        3
 70
     0
 43
0.0
 10
90.625
 20
143.85
 10
84.92499999999999
 20
141.775
 10
87.79999999999999
 20
143.85
  0
LWPOLYLINE
  5
989
330
11D
100
AcDbEntity
  8
0
100
AcDbPolyline
 90
        3
 70
     0
 43
0.0
 10
90.625
 20
129.925
 10
82.85
 20
129.1
 10
86.575
 20
130.325
  0
LWPOLYLINE
  5
992
330
11D
100
AcDbEntity
  8
0
100
AcDbPolyline
 90
        3
 70
     0
 43
0.0
 10
89.40000000000001
 20
96.37500000000001
 10
84.075
 20
95.95
 10
87.375
 20
97.17500000000001
  0
LWPOLYLINE
  5
99B
330
11D
100
AcDbEntity
  8
0
100
AcDbPolyline
 90
        3
 70
     0
 43
0.0
 10
89.82499999999999
 20
89.40000000000001
 10
81.62499999999999
 20
86.54999999999999
 10
83.7
 20
88.59999999999999
  0
LWPOLYLINE
  5
9A4
330
11D
100
AcDbEntity
  8
0
100
AcDbPolyline
 90
        3
 70
     0
 43
0.0
 10
89.82499999999999
 20
84.9
 10
84.50000000000001
 20
83.67499999999999
 10
86.575
 20
84.9
  0
MTEXT
  5
9AD
330
11D
100
AcDbEntity
  8
0
100
AcDbMText
 10
57.9
 20
218.7
 30
0.0
 40
2.38125
 41
18.825
 46
0.0
 71
     1
 72
     5
  1
{\fMS Mincho|b0|i0|c128|p17;\T1.5;変速装置操縦装置}
  7
BIGFONT
 73
     1
 44
1.305449999999999
  0
MTEXT
  5
9B0
330
11D
100
AcDbEntity
  8
0
100
AcDbMText
 10
100.05
 20
185.8
 30
0.0
 40
2.38125
 41
15.55
 46
0.0
 71
     1
 72
     5
  1
{\fMS Mincho|b0|i0|c128|p17;\T1.5;泥 水 バック}
  7
BIGFONT
 73
     1
 44
1.198568999999999
  0
MTEXT
  5
9B3
330
11D
100
AcDbEntity
  8
0
100
AcDbMText
 10
40.42499999999999
 20
175.95
 30
0.0
 40
2.38125
 41
34.29
 46
0.0
 71
     1
 72
     5
  1
{\f@MS Mincho|b0|i0|c128|p17;\T1.5;オイルポンプ}
  7
BIGFONT
 11
0.0
 21
-1.0
 31
0.0
 73
     1
 44
1.198568999999999
  0
MTEXT
  5
9B6
330
11D
100
AcDbEntity
  8
0
100
AcDbMText
 10
51.4
 20
71.15000000000001
 30
0.0
 40
2.38125
 41
102.87
 46
0.0
 71
     1
 72
     5
  1
\fＭＳ 明朝|b0|i0|c128|p17;\T1.0200;※全地連ボーリングハンドブックによる
  7
BIGFONT
 73
     1
 44
1.034880999999999
  0
LWPOLYLINE
  5
1000005B
330
11D
100
AcDbEntity
  8
0
100
AcDbPolyline
 90
        2
 70
     1
 43
1.0
 10
60.41875
 20
239.6000000000004
 42
1.0
 10
61.13125000000017
 20
239.6000000000004
 42
1.0
  0
LWPOLYLINE
  5
1000005C
330
11D
100
AcDbEntity
  8
0
100
AcDbPolyline
 90
        2
 70
     1
 43
1.0
 10
69.81874999999991
 20
239.6
 42
1.0
 10
70.53125000000008
 20
239.6
 42
1.0
  0
ENDSEC
  0
SECTION
  2
OBJECTS
  0
DICTIONARY
  5
9C1
330
0
100
AcDbDictionary
281
     1
  3
ACAD_COLOR
350
9C2
  3
ACAD_GROUP
350
9C3
  3
ACAD_LAYOUT
350
9C4
  3
ACAD_MATERIAL
350
9C5
  3
ACAD_MLEADERSTYLE
350
10000050
  3
ACAD_MLINESTYLE
350
9C6
  3
ACAD_PLOTSETTINGS
350
10000053
  3
ACAD_PLOTSTYLENAME
350
10000001
  3
ACAD_SCALELIST
350
1000002E
  3
ACAD_TABLESTYLE
350
1000002C
  3
ACAD_VISUALSTYLE
350
1000001B
  3
ACDB_RECOMPOSE_DATA
350
100000B8
  3
AcDbVariableDictionary
350
100000AD
  3
CONTENTDICTIONARY
350
9CC
  0
DICTIONARY
  5
1000005D
330
CF
100
AcDbDictionary
280
     1
281
     1
  3
ADSK_XREC_LAYER_RECONCILED
360
1000005E
  0
DICTIONARY
  5
1000005F
330
D2
100
AcDbDictionary
280
     1
281
     1
  3
ADSK_XREC_LAYER_RECONCILED
360
10000060
  0
DICTIONARY
  5
10000061
330
D5
100
AcDbDictionary
280
     1
281
     1
  3
ADSK_XREC_LAYER_RECONCILED
360
10000062
  0
DICTIONARY
  5
10000063
330
D8
100
AcDbDictionary
280
     1
281
     1
  3
ADSK_XREC_LAYER_RECONCILED
360
10000064
  0
DICTIONARY
  5
10000065
330
DB
100
AcDbDictionary
280
     1
281
     1
  3
ADSK_XREC_LAYER_RECONCILED
360
10000066
  0
DICTIONARY
  5
10000067
330
DE
100
AcDbDictionary
280
     1
281
     1
  3
ADSK_XREC_LAYER_RECONCILED
360
10000068
  0
DICTIONARY
  5
10000069
330
E1
100
AcDbDictionary
280
     1
281
     1
  3
ADSK_XREC_LAYER_RECONCILED
360
1000006A
  0
DICTIONARY
  5
1000006B
330
E4
100
AcDbDictionary
280
     1
281
     1
  3
ADSK_XREC_LAYER_RECONCILED
360
1000006C
  0
DICTIONARY
  5
1000006D
330
E7
100
AcDbDictionary
280
     1
281
     1
  3
ADSK_XREC_LAYER_RECONCILED
360
1000006E
  0
DICTIONARY
  5
1000006F
330
EA
100
AcDbDictionary
280
     1
281
     1
  3
ADSK_XREC_LAYER_RECONCILED
360
10000070
  0
DICTIONARY
  5
10000071
330
ED
100
AcDbDictionary
280
     1
281
     1
  3
ADSK_XREC_LAYER_RECONCILED
360
10000072
  0
DICTIONARY
  5
10000073
330
F0
100
AcDbDictionary
280
     1
281
     1
  3
ADSK_XREC_LAYER_RECONCILED
360
10000074
  0
DICTIONARY
  5
10000075
330
F3
100
AcDbDictionary
280
     1
281
     1
  3
ADSK_XREC_LAYER_RECONCILED
360
10000076
  0
DICTIONARY
  5
10000077
330
F6
100
AcDbDictionary
280
     1
281
     1
  3
ADSK_XREC_LAYER_RECONCILED
360
10000078
  0
DICTIONARY
  5
9C2
102
{ACAD_REACTORS
330
9C1
102
}
330
9C1
100
AcDbDictionary
281
     1
  0
DICTIONARY
  5
9C3
102
{ACAD_REACTORS
330
9C1
102
}
330
9C1
100
AcDbDictionary
281
     1
  3
Layout1
350
9CD
  3
Layout2
350
9CE
  0
DICTIONARY
  5
9C4
102
{ACAD_REACTORS
330
9C1
102
}
330
9C1
100
AcDbDictionary
281
     1
  3
Model
350
10000054
  3
レイアウト1
350
10000055
  0
DICTIONARY
  5
9C5
102
{ACAD_REACTORS
330
9C1
102
}
330
9C1
100
AcDbDictionary
281
     1
  3
ByBlock
350
1000000B
  3
ByLayer
350
10000003
  3
Global
350
10000013
  0
DICTIONARY
  5
10000050
102
{ACAD_REACTORS
330
9C1
102
}
330
9C1
100
AcDbDictionary
281
     1
  3
Standard
350
10000051
  0
DICTIONARY
  5
9C6
102
{ACAD_REACTORS
330
9C1
102
}
330
9C1
100
AcDbDictionary
281
     1
  3
Standard
350
9CF
  0
DICTIONARY
  5
10000053
102
{ACAD_REACTORS
330
9C1
102
}
330
9C1
100
AcDbDictionary
281
     1
  0
ACDBDICTIONARYWDFLT
  5
10000001
102
{ACAD_REACTORS
330
9C1
102
}
330
9C1
100
AcDbDictionary
281
     1
  3
Normal
350
10000002
100
AcDbDictionaryWithDefault
340
10000002
  0
DICTIONARY
  5
1000002E
102
{ACAD_REACTORS
330
9C1
102
}
330
9C1
100
AcDbDictionary
281
     1
  3
A0
350
1000002F
  3
A1
350
10000030
  3
A2
350
10000031
  3
A3
350
10000032
  3
A4
350
10000033
  3
A5
350
10000034
  3
A6
350
10000035
  3
A7
350
10000036
  3
A8
350
10000037
  3
A9
350
10000038
  3
B0
350
10000039
  3
B1
350
1000003A
  3
B2
350
1000003B
  3
B3
350
1000003C
  3
B4
350
1000003D
  3
B5
350
1000003E
  3
B6
350
1000003F
  3
B7
350
10000040
  3
B8
350
10000041
  3
B9
350
10000042
  3
C0
350
10000043
  3
C1
350
10000044
  3
C2
350
10000045
  3
C3
350
10000046
  3
C4
350
10000047
  3
C5
350
10000048
  3
C6
350
10000049
  3
C7
350
1000004A
  3
C8
350
1000004B
  3
C9
350
1000004C
  3
D0
350
1000004D
  3
D1
350
1000004E
  3
D2
350
1000004F
  0
DICTIONARY
  5
1000002C
102
{ACAD_REACTORS
330
9C1
102
}
330
9C1
100
AcDbDictionary
281
     1
  3
Standard
350
1000002D
  0
DICTIONARY
  5
1000001B
102
{ACAD_REACTORS
330
9C1
102
}
330
9C1
100
AcDbDictionary
281
     1
  3
2dWireframe
350
10000021
  3
3D Hidden
350
10000023
  3
3dWireframe
350
10000022
  3
Basic
350
10000020
  3
Brighten
350
10000027
  3
ColorChange
350
1000002B
  3
Conceptual
350
10000024
  3
Dim
350
10000026
  3
Facepattern
350
1000002A
  3
Flat
350
1000001C
  3
FlatWithEdges
350
1000001D
  3
Gouraud
350
1000001E
  3
GouraudWithEdges
350
1000001F
  3
Linepattern
350
10000029
  3
Realistic
350
10000025
  3
Thicken
350
10000028
  0
XRECORD
  5
100000B8
102
{ACAD_REACTORS
330
9C1
102
}
330
9C1
100
AcDbXrecord
280
     1
 90
        1
330
1000002D
  0
DICTIONARY
  5
100000AD
102
{ACAD_REACTORS
330
9C1
102
}
330
9C1
100
AcDbDictionary
281
     1
  3
CANNOSCALE
350
100000B1
  3
CMLEADERSTYLE
350
100000AF
  3
CTABLESTYLE
350
100000AE
  3
LIGHTINGUNITS
350
100000B2
  3
MSLTSCALE
350
100000B0
  0
LAYOUT
  5
9CC
102
{ACAD_XDICTIONARY
360
CD7
102
}
102
{ACAD_REACTORS
330
9C2
102
}
330
9C2
100
AcDbPlotSettings
  1

  2

  4

  6

 40
0.0
 41
0.0
 42
0.0
 43
0.0
 44
0.0
 45
0.0
 46
0.0
 47
0.0
 48
0.0
 49
0.0
140
0.0
141
0.0
142
1.0
143
1.0
 70
   688
 72
     0
 73
     0
 74
     5
  7

 75
    16
147
1.0
 76
     0
 77
     2
 78
   300
148
0.0
149
0.0
100
AcDbLayout
  1
Layout1
 70
     1
 71
     1
 10
0.0
 20
0.0
 11
199.0
 21
285.0
 12
0.0
 22
0.0
 32
0.0
 14
1.000000000000000E+20
 24
1.000000000000000E+20
 34
1.000000000000000E+20
 15
-1.000000000000000E+20
 25
-1.000000000000000E+20
 35
-1.000000000000000E+20
146
0.0
 13
0.0
 23
0.0
 33
0.0
 16
1.0
 26
0.0
 36
0.0
 17
0.0
 27
1.0
 37
0.0
 76
     0
330
9C6
  0
XRECORD
  5
1000005E
102
{ACAD_REACTORS
330
1000005D
102
}
330
1000005D
100
AcDbXrecord
280
     1
290
     1
  0
XRECORD
  5
10000060
102
{ACAD_REACTORS
330
1000005F
102
}
330
1000005F
100
AcDbXrecord
280
     1
290
     1
  0
XRECORD
  5
10000062
102
{ACAD_REACTORS
330
10000061
102
}
330
10000061
100
AcDbXrecord
280
     1
290
     1
  0
XRECORD
  5
10000064
102
{ACAD_REACTORS
330
10000063
102
}
330
10000063
100
AcDbXrecord
280
     1
290
     1
  0
XRECORD
  5
10000066
102
{ACAD_REACTORS
330
10000065
102
}
330
10000065
100
AcDbXrecord
280
     1
290
     1
  0
XRECORD
  5
10000068
102
{ACAD_REACTORS
330
10000067
102
}
330
10000067
100
AcDbXrecord
280
     1
290
     1
  0
XRECORD
  5
1000006A
102
{ACAD_REACTORS
330
10000069
102
}
330
10000069
100
AcDbXrecord
280
     1
290
     1
  0
XRECORD
  5
1000006C
102
{ACAD_REACTORS
330
1000006B
102
}
330
1000006B
100
AcDbXrecord
280
     1
290
     1
  0
XRECORD
  5
1000006E
102
{ACAD_REACTORS
330
1000006D
102
}
330
1000006D
100
AcDbXrecord
280
     1
290
     1
  0
XRECORD
  5
10000070
102
{ACAD_REACTORS
330
1000006F
102
}
330
1000006F
100
AcDbXrecord
280
     1
290
     1
  0
XRECORD
  5
10000072
102
{ACAD_REACTORS
330
10000071
102
}
330
10000071
100
AcDbXrecord
280
     1
290
     1
  0
XRECORD
  5
10000074
102
{ACAD_REACTORS
330
10000073
102
}
330
10000073
100
AcDbXrecord
280
     1
290
     1
  0
XRECORD
  5
10000076
102
{ACAD_REACTORS
330
10000075
102
}
330
10000075
100
AcDbXrecord
280
     1
290
     1
  0
XRECORD
  5
10000078
102
{ACAD_REACTORS
330
10000077
102
}
330
10000077
100
AcDbXrecord
280
     1
290
     1
  0
LAYOUT
  5
9CD
102
{ACAD_XDICTIONARY
360
CD9
102
}
102
{ACAD_REACTORS
330
9C2
102
}
330
9C2
100
AcDbPlotSettings
  1

  2

  4

  6

 40
0.0
 41
0.0
 42
0.0
 43
0.0
 44
0.0
 45
0.0
 46
0.0
 47
0.0
 48
0.0
 49
0.0
140
0.0
141
0.0
142
1.0
143
1.0
 70
   688
 72
     0
 73
     0
 74
     5
  7

 75
    16
147
1.0
 76
     0
 77
     2
 78
   300
148
0.0
149
0.0
100
AcDbLayout
  1
Layout2
 70
     1
 71
     2
 10
0.0
 20
0.0
 11
199.0
 21
285.0
 12
0.0
 22
0.0
 32
0.0
 14
0.0
 24
0.0
 34
0.0
 15
0.0
 25
0.0
 35
0.0
146
0.0
 13
0.0
 23
0.0
 33
0.0
 16
1.0
 26
0.0
 36
0.0
 17
0.0
 27
1.0
 37
0.0
 76
     0
330
9CD
  0
LAYOUT
  5
9CE
102
{ACAD_XDICTIONARY
360
CDB
102
}
102
{ACAD_REACTORS
330
9C2
102
}
330
9C2
100
AcDbPlotSettings
  1

  2

  4

  6

 40
0.0
 41
0.0
 42
0.0
 43
0.0
 44
0.0
 45
0.0
 46
0.0
 47
0.0
 48
0.0
 49
0.0
140
0.0
141
0.0
142
1.0
143
1.0
 70
  1712
 72
     0
 73
     0
 74
     0
  7

 75
    16
147
1.0
 76
     0
 77
     2
 78
   300
148
0.0
149
0.0
100
AcDbLayout
  1
Model
 70
     1
 71
     0
 10
0.0
 20
0.0
 11
199.0
 21
285.0
 12
0.0
 22
0.0
 32
0.0
 14
0.0
 24
0.0
 34
0.0
 15
0.0
 25
0.0
 35
0.0
146
0.0
 13
0.0
 23
0.0
 33
0.0
 16
1.0
 26
0.0
 36
0.0
 17
0.0
 27
1.0
 37
0.0
 76
     0
330
9CE
  0
LAYOUT
  5
10000054
102
{ACAD_REACTORS
330
9C4
102
}
330
9C4
100
AcDbPlotSettings
  1

  2
C:\Documents and Settings\nkoba\Application Data\Autodesk\AutoCAD 2008\R17.1\jpn\plotters\HP Designjet 500 42+HPGL2 Card.pc3
  4

  6

 40
0.0
 41
0.0
 42
0.0
 43
0.0
 44
0.0
 45
0.0
 46
0.0
 47
0.0
 48
0.0
 49
0.0
140
0.0
141
0.0
142
1.0
143
1.0
 70
  1712
 72
     0
 73
     0
 74
     0
  7

 75
     0
147
1.0
 76
     0
 77
     2
 78
   300
148
0.0
149
0.0
100
AcDbLayout
  1
Model
 70
     1
 71
     0
 10
0.0
 20
0.0
 11
12.0
 21
9.0
 12
0.0
 22
0.0
 32
0.0
 14
0.0
 24
0.0
 34
0.0
 15
0.0
 25
0.0
 35
0.0
146
0.0
 13
0.0
 23
0.0
 33
0.0
 16
1.0
 26
0.0
 36
0.0
 17
0.0
 27
1.0
 37
0.0
 76
     0
330
11D
331
A5
  0
LAYOUT
  5
10000055
102
{ACAD_REACTORS
330
9C4
102
}
330
9C4
100
AcDbPlotSettings
  1

  2
C:\Documents and Settings\nkoba\Application Data\Autodesk\AutoCAD 2008\R17.1\jpn\plotters\HP Designjet 500 42+HPGL2 Card.pc3
  4

  6

 40
0.0
 41
0.0
 42
0.0
 43
0.0
 44
0.0
 45
0.0
 46
0.0
 47
0.0
 48
0.0
 49
0.0
140
0.0
141
0.0
142
1.0
143
1.0
 70
   688
 72
     0
 73
     0
 74
     5
  7

 75
    16
147
1.0
 76
     0
 77
     2
 78
   300
148
0.0
149
0.0
100
AcDbLayout
  1
レイアウト1
 70
     1
 71
     1
 10
0.0
 20
0.0
 11
199.0
 21
285.0
 12
0.0
 22
0.0
 32
0.0
 14
1.000000000000000E+20
 24
1.000000000000000E+20
 34
1.000000000000000E+20
 15
-1.000000000000000E+20
 25
-1.000000000000000E+20
 35
-1.000000000000000E+20
146
0.0
 13
0.0
 23
0.0
 33
0.0
 16
1.0
 26
0.0
 36
0.0
 17
0.0
 27
1.0
 37
0.0
 76
     0
330
120
  0
MATERIAL
  5
1000000B
102
{ACAD_XDICTIONARY
360
1000000C
102
}
102
{ACAD_REACTORS
330
9C5
102
}
330
9C5
100
AcDbMaterial
  1
ByBlock
 72
     0
 43
0.0208333333333333
 43
0.0
 43
0.0
 43
0.0
 43
0.0
 43
0.0208333333333333
 43
0.0
 43
0.0
 43
0.0
 43
0.0
 43
1.0
 43
0.0
 43
0.0
 43
0.0
 43
0.0
 43
1.0
 77
     0
 47
0.0208333333333333
 47
0.0
 47
0.0
 47
0.0
 47
0.0
 47
0.0208333333333333
 47
0.0
 47
0.0
 47
0.0
 47
0.0
 47
1.0
 47
0.0
 47
0.0
 47
0.0
 47
0.0
 47
1.0
171
     0
 49
0.0208333333333333
 49
0.0
 49
0.0
 49
0.0
 49
0.0
 49
0.0208333333333333
 49
0.0
 49
0.0
 49
0.0
 49
0.0
 49
1.0
 49
0.0
 49
0.0
 49
0.0
 49
0.0
 49
1.0
175
     0
142
0.0208333333333333
142
0.0
142
0.0
142
0.0
142
0.0
142
0.0208333333333333
142
0.0
142
0.0
142
0.0
142
0.0
142
1.0
142
0.0
142
0.0
142
0.0
142
0.0
142
1.0
179
     0
144
0.0208333333333333
144
0.0
144
0.0
144
0.0
144
0.0
144
0.0208333333333333
144
0.0
144
0.0
144
0.0
144
0.0
144
1.0
144
0.0
144
0.0
144
0.0
144
0.0
144
1.0
147
0.0208333333333333
147
0.0
147
0.0
147
0.0
147
0.0
147
0.0208333333333333
147
0.0
147
0.0
147
0.0
147
0.0
147
1.0
147
0.0
147
0.0
147
0.0
147
0.0
147
1.0
  0
MATERIAL
  5
10000003
102
{ACAD_XDICTIONARY
360
10000004
102
}
102
{ACAD_REACTORS
330
9C5
102
}
330
9C5
100
AcDbMaterial
  1
ByLayer
 72
     0
 43
0.0208333333333333
 43
0.0
 43
0.0
 43
0.0
 43
0.0
 43
0.0208333333333333
 43
0.0
 43
0.0
 43
0.0
 43
0.0
 43
1.0
 43
0.0
 43
0.0
 43
0.0
 43
0.0
 43
1.0
 77
     0
 47
0.0208333333333333
 47
0.0
 47
0.0
 47
0.0
 47
0.0
 47
0.0208333333333333
 47
0.0
 47
0.0
 47
0.0
 47
0.0
 47
1.0
 47
0.0
 47
0.0
 47
0.0
 47
0.0
 47
1.0
171
     0
 49
0.0208333333333333
 49
0.0
 49
0.0
 49
0.0
 49
0.0
 49
0.0208333333333333
 49
0.0
 49
0.0
 49
0.0
 49
0.0
 49
1.0
 49
0.0
 49
0.0
 49
0.0
 49
0.0
 49
1.0
175
     0
142
0.0208333333333333
142
0.0
142
0.0
142
0.0
142
0.0
142
0.0208333333333333
142
0.0
142
0.0
142
0.0
142
0.0
142
1.0
142
0.0
142
0.0
142
0.0
142
0.0
142
1.0
179
     0
144
0.0208333333333333
144
0.0
144
0.0
144
0.0
144
0.0
144
0.0208333333333333
144
0.0
144
0.0
144
0.0
144
0.0
144
1.0
144
0.0
144
0.0
144
0.0
144
0.0
144
1.0
147
0.0208333333333333
147
0.0
147
0.0
147
0.0
147
0.0
147
0.0208333333333333
147
0.0
147
0.0
147
0.0
147
0.0
147
1.0
147
0.0
147
0.0
147
0.0
147
0.0
147
1.0
  0
MATERIAL
  5
10000013
102
{ACAD_XDICTIONARY
360
10000014
102
}
102
{ACAD_REACTORS
330
9C5
102
}
330
9C5
100
AcDbMaterial
  1
Global
 72
     0
 43
0.0208333333333333
 43
0.0
 43
0.0
 43
0.0
 43
0.0
 43
0.0208333333333333
 43
0.0
 43
0.0
 43
0.0
 43
0.0
 43
1.0
 43
0.0
 43
0.0
 43
0.0
 43
0.0
 43
1.0
 77
     0
 47
0.0208333333333333
 47
0.0
 47
0.0
 47
0.0
 47
0.0
 47
0.0208333333333333
 47
0.0
 47
0.0
 47
0.0
 47
0.0
 47
1.0
 47
0.0
 47
0.0
 47
0.0
 47
0.0
 47
1.0
171
     0
 49
0.0208333333333333
 49
0.0
 49
0.0
 49
0.0
 49
0.0
 49
0.0208333333333333
 49
0.0
 49
0.0
 49
0.0
 49
0.0
 49
1.0
 49
0.0
 49
0.0
 49
0.0
 49
0.0
 49
1.0
175
     0
142
0.0208333333333333
142
0.0
142
0.0
142
0.0
142
0.0
142
0.0208333333333333
142
0.0
142
0.0
142
0.0
142
0.0
142
1.0
142
0.0
142
0.0
142
0.0
142
0.0
142
1.0
179
     0
144
0.0208333333333333
144
0.0
144
0.0
144
0.0
144
0.0
144
0.0208333333333333
144
0.0
144
0.0
144
0.0
144
0.0
144
1.0
144
0.0
144
0.0
144
0.0
144
0.0
144
1.0
147
0.0208333333333333
147
0.0
147
0.0
147
0.0
147
0.0
147
0.0208333333333333
147
0.0
147
0.0
147
0.0
147
0.0
147
1.0
147
0.0
147
0.0
147
0.0
147
0.0
147
1.0
  0
MLEADERSTYLE
  5
10000051
102
{ACAD_REACTORS
330
10000050
102
}
330
10000050
100
AcDbMLeaderStyle
170
     2
171
     1
172
     0
 90
        2
 40
0.0
 41
0.0
173
     1
 91
-1056964608
340
AB
 92
       -2
290
     1
 42
2.0
291
     1
 43
0.36
  3
Standard
 44
4.0
300

342
FC
174
     1
178
     6
175
     1
176
     0
 93
-1056964608
 45
4.0
292
     0
297
     0
 46
4.0
 94
-1056964608
 47
1.0
 49
1.0
140
1.0
293
     1
141
0.0
294
     1
177
     0
142
1.0
295
     0
296
     0
143
0.125
1001
ACAD_MLEADERVER
1070
     2
  0
MLINESTYLE
  5
9CF
102
{ACAD_REACTORS
330
9CE
102
}
330
9CE
100
AcDbMlineStyle
  2
STANDARD
 70
     0
  3
 
 62
   256
 51
90.0
 52
90.0
 71
     2
 49
0.5
 62
   256
  6
BYLAYER
 49
-0.5
 62
   256
  6
BYLAYER
  0
ACDBPLACEHOLDER
  5
10000002
102
{ACAD_REACTORS
330
10000001
102
}
330
10000001
  0
SCALE
  5
1000002F
102
{ACAD_REACTORS
330
1000002E
102
}
330
1000002E
100
AcDbScale
 70
     0
300
1:1
140
1.0
141
1.0
290
     1
  0
SCALE
  5
10000030
102
{ACAD_REACTORS
330
1000002E
102
}
330
1000002E
100
AcDbScale
 70
     0
300
1:2
140
1.0
141
2.0
290
     0
  0
SCALE
  5
10000031
102
{ACAD_REACTORS
330
1000002E
102
}
330
1000002E
100
AcDbScale
 70
     0
300
1:4
140
1.0
141
4.0
290
     0
  0
SCALE
  5
10000032
102
{ACAD_REACTORS
330
1000002E
102
}
330
1000002E
100
AcDbScale
 70
     0
300
1:5
140
1.0
141
5.0
290
     0
  0
SCALE
  5
10000033
102
{ACAD_REACTORS
330
1000002E
102
}
330
1000002E
100
AcDbScale
 70
     0
300
1:8
140
1.0
141
8.0
290
     0
  0
SCALE
  5
10000034
102
{ACAD_REACTORS
330
1000002E
102
}
330
1000002E
100
AcDbScale
 70
     0
300
1:10
140
1.0
141
10.0
290
     0
  0
SCALE
  5
10000035
102
{ACAD_REACTORS
330
1000002E
102
}
330
1000002E
100
AcDbScale
 70
     0
300
1:16
140
1.0
141
16.0
290
     0
  0
SCALE
  5
10000036
102
{ACAD_REACTORS
330
1000002E
102
}
330
1000002E
100
AcDbScale
 70
     0
300
1:20
140
1.0
141
20.0
290
     0
  0
SCALE
  5
10000037
102
{ACAD_REACTORS
330
1000002E
102
}
330
1000002E
100
AcDbScale
 70
     0
300
1:30
140
1.0
141
30.0
290
     0
  0
SCALE
  5
10000038
102
{ACAD_REACTORS
330
1000002E
102
}
330
1000002E
100
AcDbScale
 70
     0
300
1:40
140
1.0
141
40.0
290
     0
  0
SCALE
  5
10000039
102
{ACAD_REACTORS
330
1000002E
102
}
330
1000002E
100
AcDbScale
 70
     0
300
1:50
140
1.0
141
50.0
290
     0
  0
SCALE
  5
1000003A
102
{ACAD_REACTORS
330
1000002E
102
}
330
1000002E
100
AcDbScale
 70
     0
300
1:100
140
1.0
141
100.0
290
     0
  0
SCALE
  5
1000003B
102
{ACAD_REACTORS
330
1000002E
102
}
330
1000002E
100
AcDbScale
 70
     0
300
2:1
140
2.0
141
1.0
290
     0
  0
SCALE
  5
1000003C
102
{ACAD_REACTORS
330
1000002E
102
}
330
1000002E
100
AcDbScale
 70
     0
300
4:1
140
4.0
141
1.0
290
     0
  0
SCALE
  5
1000003D
102
{ACAD_REACTORS
330
1000002E
102
}
330
1000002E
100
AcDbScale
 70
     0
300
8:1
140
8.0
141
1.0
290
     0
  0
SCALE
  5
1000003E
102
{ACAD_REACTORS
330
1000002E
102
}
330
1000002E
100
AcDbScale
 70
     0
300
10:1
140
10.0
141
1.0
290
     0
  0
SCALE
  5
1000003F
102
{ACAD_REACTORS
330
1000002E
102
}
330
1000002E
100
AcDbScale
 70
     0
300
100:1
140
100.0
141
1.0
290
     0
  0
SCALE
  5
10000040
102
{ACAD_REACTORS
330
1000002E
102
}
330
1000002E
100
AcDbScale
 70
     0
300
1/128" = 1'-0"
140
0.0078125
141
12.0
290
     0
  0
SCALE
  5
10000041
102
{ACAD_REACTORS
330
1000002E
102
}
330
1000002E
100
AcDbScale
 70
     0
300
1/64" = 1'-0"
140
0.015625
141
12.0
290
     0
  0
SCALE
  5
10000042
102
{ACAD_REACTORS
330
1000002E
102
}
330
1000002E
100
AcDbScale
 70
     0
300
1/32" = 1'-0"
140
0.03125
141
12.0
290
     0
  0
SCALE
  5
10000043
102
{ACAD_REACTORS
330
1000002E
102
}
330
1000002E
100
AcDbScale
 70
     0
300
1/16" = 1'-0"
140
0.0625
141
12.0
290
     0
  0
SCALE
  5
10000044
102
{ACAD_REACTORS
330
1000002E
102
}
330
1000002E
100
AcDbScale
 70
     0
300
3/32" = 1'-0"
140
0.09375
141
12.0
290
     0
  0
SCALE
  5
10000045
102
{ACAD_REACTORS
330
1000002E
102
}
330
1000002E
100
AcDbScale
 70
     0
300
1/8" = 1'-0"
140
0.125
141
12.0
290
     0
  0
SCALE
  5
10000046
102
{ACAD_REACTORS
330
1000002E
102
}
330
1000002E
100
AcDbScale
 70
     0
300
3/16" = 1'-0"
140
0.1875
141
12.0
290
     0
  0
SCALE
  5
10000047
102
{ACAD_REACTORS
330
1000002E
102
}
330
1000002E
100
AcDbScale
 70
     0
300
1/4" = 1'-0"
140
0.25
141
12.0
290
     0
  0
SCALE
  5
10000048
102
{ACAD_REACTORS
330
1000002E
102
}
330
1000002E
100
AcDbScale
 70
     0
300
3/8" = 1'-0"
140
0.375
141
12.0
290
     0
  0
SCALE
  5
10000049
102
{ACAD_REACTORS
330
1000002E
102
}
330
1000002E
100
AcDbScale
 70
     0
300
1/2" = 1'-0"
140
0.5
141
12.0
290
     0
  0
SCALE
  5
1000004A
102
{ACAD_REACTORS
330
1000002E
102
}
330
1000002E
100
AcDbScale
 70
     0
300
3/4" = 1'-0"
140
0.75
141
12.0
290
     0
  0
SCALE
  5
1000004B
102
{ACAD_REACTORS
330
1000002E
102
}
330
1000002E
100
AcDbScale
 70
     0
300
1" = 1'-0"
140
1.0
141
12.0
290
     0
  0
SCALE
  5
1000004C
102
{ACAD_REACTORS
330
1000002E
102
}
330
1000002E
100
AcDbScale
 70
     0
300
1-1/2" = 1'-0"
140
1.5
141
12.0
290
     0
  0
SCALE
  5
1000004D
102
{ACAD_REACTORS
330
1000002E
102
}
330
1000002E
100
AcDbScale
 70
     0
300
3" = 1'-0"
140
3.0
141
12.0
290
     0
  0
SCALE
  5
1000004E
102
{ACAD_REACTORS
330
1000002E
102
}
330
1000002E
100
AcDbScale
 70
     0
300
6" = 1'-0"
140
6.0
141
12.0
290
     0
  0
SCALE
  5
1000004F
102
{ACAD_REACTORS
330
1000002E
102
}
330
1000002E
100
AcDbScale
 70
     0
300
1'-0" = 1'-0"
140
12.0
141
12.0
290
     0
  0
TABLESTYLE
  5
1000002D
102
{ACAD_XDICTIONARY
360
100000B6
102
}
102
{ACAD_REACTORS
330
1000002C
102
}
330
1000002C
100
AcDbTableStyle
  3
Standard
 70
     0
 71
     0
 40
1.5
 41
1.5
280
     0
281
     0
  7
STANDARD
140
4.5
170
     2
 62
     0
 63
     7
283
     0
 90
      512
 91
        0
  1

274
    -2
284
     1
 64
     0
275
    -2
285
     1
 65
     0
276
    -2
286
     1
 66
     0
277
    -2
287
     1
 67
     0
278
    -2
288
     1
 68
     0
279
    -2
289
     1
 69
     0
  7
STANDARD
140
6.0
170
     5
 62
     0
 63
     7
283
     0
 90
      512
 91
        0
  1

274
    -2
284
     1
 64
     0
275
    -2
285
     1
 65
     0
276
    -2
286
     1
 66
     0
277
    -2
287
     1
 67
     0
278
    -2
288
     1
 68
     0
279
    -2
289
     1
 69
     0
  7
STANDARD
140
4.5
170
     5
 62
     0
 63
     7
283
     0
 90
      512
 91
        0
  1

274
    -2
284
     1
 64
     0
275
    -2
285
     1
 65
     0
276
    -2
286
     1
 66
     0
277
    -2
287
     1
 67
     0
278
    -2
288
     1
 68
     0
279
    -2
289
     1
 69
     0
  0
VISUALSTYLE
  5
10000021
102
{ACAD_REACTORS
330
1000001B
102
}
330
1000001B
100
AcDbVisualStyle
  2
2dWireframe
 70
     4
 71
     0
 72
     2
 73
     0
 90
        0
 40
-0.6
 41
-30.0
 62
     5
 63
     7
421
 16777215
 74
     1
 91
        4
 64
     7
 65
   257
 75
     1
175
     1
 42
1.0
 92
        0
 66
   257
 43
1.0
 76
     1
 77
     6
 78
     2
 67
     7
 79
     5
170
     0
171
     0
290
     0
174
     0
 93
        1
 44
0.0
173
     0
291
     0
 45
0.0
  0
VISUALSTYLE
  5
10000023
102
{ACAD_REACTORS
330
1000001B
102
}
330
1000001B
100
AcDbVisualStyle
  2
3D Hidden
 70
     6
 71
     1
 72
     2
 73
     2
 90
        0
 40
-0.6
 41
-30.0
 62
     5
 63
     7
421
 16777215
 74
     2
 91
        2
 64
     7
 65
   257
 75
     2
175
     1
 42
40.0
 92
        0
 66
   257
 43
1.0
 76
     1
 77
     6
 78
     2
 67
     7
 79
     3
170
     0
171
     0
290
     0
174
     0
 93
        1
 44
0.0
173
     0
291
     0
 45
0.0
  0
VISUALSTYLE
  5
10000022
102
{ACAD_REACTORS
330
1000001B
102
}
330
1000001B
100
AcDbVisualStyle
  2
3dWireframe
 70
     5
 71
     0
 72
     2
 73
     0
 90
        0
 40
-0.6
 41
-30.0
 62
     5
 63
     7
421
 16777215
 74
     1
 91
        4
 64
     7
 65
   257
 75
     1
175
     1
 42
1.0
 92
        0
 66
   257
 43
1.0
 76
     1
 77
     6
 78
     2
 67
     7
 79
     5
170
     0
171
     0
290
     0
174
     0
 93
        1
 44
0.0
173
     0
291
     0
 45
0.0
  0
VISUALSTYLE
  5
10000020
102
{ACAD_REACTORS
330
1000001B
102
}
330
1000001B
100
AcDbVisualStyle
  2
Basic
 70
     7
 71
     1
 72
     0
 73
     1
 90
        0
 40
-0.6
 41
-30.0
 62
     5
 63
     7
421
 16777215
 74
     0
 91
        4
 64
     7
 65
   257
 75
     1
175
     1
 42
1.0
 92
        8
 66
     7
 43
1.0
 76
     1
 77
     6
 78
     2
 67
     7
 79
     5
170
     0
171
     0
290
     0
174
     0
 93
        1
 44
0.0
173
     0
291
     1
 45
0.0
  0
VISUALSTYLE
  5
10000027
102
{ACAD_REACTORS
330
1000001B
102
}
330
1000001B
100
AcDbVisualStyle
  2
Brighten
 70
    12
 71
     2
 72
     2
 73
     0
 90
        0
 40
-0.6
 41
-30.0
 62
     5
 63
     7
421
 16777215
 74
     1
 91
        4
 64
     7
 65
   257
 75
     1
175
     1
 42
1.0
 92
        8
 66
     7
 43
1.0
 76
     1
 77
     6
 78
     2
 67
     7
 79
     5
170
     0
171
     0
290
     0
174
     0
 93
        1
 44
50.0
173
     0
291
     1
 45
0.0
  0
VISUALSTYLE
  5
1000002B
102
{ACAD_REACTORS
330
1000001B
102
}
330
1000001B
100
AcDbVisualStyle
  2
ColorChange
 70
    16
 71
     2
 72
     2
 73
     3
 90
        0
 40
-0.6
 41
-30.0
 62
     5
 63
     8
421
  8421504
 74
     1
 91
        4
 64
     7
 65
   257
 75
     1
175
     1
 42
1.0
 92
        8
 66
     8
424
  8421504
 43
1.0
 76
     1
 77
     6
 78
     2
 67
     7
 79
     5
170
     0
171
     0
290
     0
174
     0
 93
        1
 44
0.0
173
     0
291
     1
 45
0.0
  0
VISUALSTYLE
  5
10000024
102
{ACAD_REACTORS
330
1000001B
102
}
330
1000001B
100
AcDbVisualStyle
  2
Conceptual
 70
     9
 71
     3
 72
     2
 73
     0
 90
        0
 40
-0.6
 41
-30.0
 62
     5
 63
     7
421
 16777215
 74
     2
 91
        2
 64
     7
 65
   257
 75
     1
175
     1
 42
40.0
 92
        8
 66
     7
 43
1.0
 76
     1
 77
     6
 78
     2
 67
     7
 79
     3
170
     0
171
     0
290
     0
174
     0
 93
        1
 44
0.0
173
     0
291
     0
 45
0.0
  0
VISUALSTYLE
  5
10000026
102
{ACAD_REACTORS
330
1000001B
102
}
330
1000001B
100
AcDbVisualStyle
  2
Dim
 70
    11
 71
     2
 72
     2
 73
     0
 90
        0
 40
-0.6
 41
-30.0
 62
     5
 63
     7
421
 16777215
 74
     1
 91
        4
 64
     7
 65
   257
 75
     1
175
     1
 42
1.0
 92
        8
 66
     7
 43
1.0
 76
     1
 77
     6
 78
     2
 67
     7
 79
     5
170
     0
171
     0
290
     0
174
     0
 93
        1
 44
-50.0
173
     0
291
     1
 45
0.0
  0
VISUALSTYLE
  5
1000002A
102
{ACAD_REACTORS
330
1000001B
102
}
330
1000001B
100
AcDbVisualStyle
  2
Facepattern
 70
    15
 71
     2
 72
     2
 73
     0
 90
        0
 40
-0.6
 41
-30.0
 62
     5
 63
     7
421
 16777215
 74
     1
 91
        4
 64
     7
 65
   257
 75
     1
175
     1
 42
1.0
 92
        8
 66
     7
 43
1.0
 76
     1
 77
     6
 78
     2
 67
     7
 79
     5
170
     0
171
     0
290
     0
174
     0
 93
        1
 44
0.0
173
     0
291
     1
 45
0.0
  0
VISUALSTYLE
  5
1000001C
102
{ACAD_REACTORS
330
1000001B
102
}
330
1000001B
100
AcDbVisualStyle
  2
Flat
 70
     0
 71
     2
 72
     1
 73
     1
 90
        2
 40
-0.6
 41
30.0
 62
     5
 63
     7
421
 16777215
 74
     0
 91
        4
 64
     7
 65
   257
 75
     1
175
     1
 42
1.0
 92
        8
 66
     7
 43
1.0
 76
     1
 77
     6
 78
     2
 67
     7
 79
     5
170
     0
171
     0
290
     0
174
     0
 93
       13
 44
0.0
173
     0
291
     1
 45
0.0
  0
VISUALSTYLE
  5
1000001D
102
{ACAD_REACTORS
330
1000001B
102
}
330
1000001B
100
AcDbVisualStyle
  2
FlatWithEdges
 70
     1
 71
     2
 72
     1
 73
     1
 90
        2
 40
-0.6
 41
30.0
 62
     5
 63
     7
421
 16777215
 74
     1
 91
        4
 64
     7
 65
   257
 75
     1
175
     1
 42
1.0
 92
        0
 66
   257
 43
1.0
 76
     1
 77
     6
 78
     2
 67
     7
 79
     5
170
     0
171
     0
290
     0
174
     0
 93
       13
 44
0.0
173
     0
291
     1
 45
0.0
  0
VISUALSTYLE
  5
1000001E
102
{ACAD_REACTORS
330
1000001B
102
}
330
1000001B
100
AcDbVisualStyle
  2
Gouraud
 70
     2
 71
     2
 72
     2
 73
     1
 90
        2
 40
-0.6
 41
30.0
 62
     5
 63
     7
421
 16777215
 74
     0
 91
        4
 64
     7
 65
   257
 75
     1
175
     1
 42
1.0
 92
        0
 66
     7
 43
1.0
 76
     1
 77
     6
 78
     2
 67
     7
 79
     5
170
     0
171
     0
290
     0
174
     0
 93
       13
 44
0.0
173
     0
291
     1
 45
0.0
  0
VISUALSTYLE
  5
1000001F
102
{ACAD_REACTORS
330
1000001B
102
}
330
1000001B
100
AcDbVisualStyle
  2
GouraudWithEdges
 70
     3
 71
     2
 72
     2
 73
     1
 90
        2
 40
-0.6
 41
30.0
 62
     5
 63
     7
421
 16777215
 74
     1
 91
        4
 64
     7
 65
   257
 75
     1
175
     1
 42
1.0
 92
        0
 66
   257
 43
1.0
 76
     1
 77
     6
 78
     2
 67
     7
 79
     5
170
     0
171
     0
290
     0
174
     0
 93
       13
 44
0.0
173
     0
291
     1
 45
0.0
  0
VISUALSTYLE
  5
10000029
102
{ACAD_REACTORS
330
1000001B
102
}
330
1000001B
100
AcDbVisualStyle
  2
Linepattern
 70
    14
 71
     2
 72
     2
 73
     0
 90
        0
 40
-0.6
 41
-30.0
 62
     5
 63
     7
421
 16777215
 74
     1
 91
        4
 64
     7
 65
   257
 75
     7
175
     7
 42
1.0
 92
        8
 66
     7
 43
1.0
 76
     1
 77
     6
 78
     2
 67
     7
 79
     5
170
     0
171
     0
290
     0
174
     0
 93
        1
 44
0.0
173
     0
291
     1
 45
0.0
  0
VISUALSTYLE
  5
10000025
102
{ACAD_REACTORS
330
1000001B
102
}
330
1000001B
100
AcDbVisualStyle
  2
Realistic
 70
     8
 71
     2
 72
     2
 73
     0
 90
        0
 40
-0.6
 41
-30.0
 62
     5
 63
     7
421
 16777215
 74
     1
 91
        0
 64
     7
 65
   257
 75
     1
175
     1
 42
1.0
 92
        8
 66
     8
424
  7895160
 43
1.0
 76
     1
 77
     6
 78
     2
 67
     7
 79
     5
170
     0
171
     0
290
     0
174
     0
 93
       13
 44
0.0
173
     0
291
     0
 45
0.0
  0
VISUALSTYLE
  5
10000028
102
{ACAD_REACTORS
330
1000001B
102
}
330
1000001B
100
AcDbVisualStyle
  2
Thicken
 70
    13
 71
     2
 72
     2
 73
     0
 90
        0
 40
-0.6
 41
-30.0
 62
     5
 63
     7
421
 16777215
 74
     1
 91
        4
 64
     7
 65
   257
 75
     1
175
     1
 42
1.0
 92
       12
 66
     7
 43
1.0
 76
     1
 77
     6
 78
     2
 67
     7
 79
     5
170
     0
171
     0
290
     0
174
     0
 93
        1
 44
0.0
173
     0
291
     1
 45
0.0
  0
DICTIONARYVAR
  5
100000B1
102
{ACAD_REACTORS
330
100000AD
102
}
330
100000AD
100
DictionaryVariables
280
     0
  1
1:1
  0
DICTIONARYVAR
  5
100000AF
102
{ACAD_REACTORS
330
100000AD
102
}
330
100000AD
100
DictionaryVariables
280
     0
  1
STANDARD
  0
DICTIONARYVAR
  5
100000AE
102
{ACAD_REACTORS
330
100000AD
102
}
330
100000AD
100
DictionaryVariables
280
     0
  1
STANDARD
  0
DICTIONARYVAR
  5
100000B2
102
{ACAD_REACTORS
330
100000AD
102
}
330
100000AD
100
DictionaryVariables
280
     0
  1
0
  0
DICTIONARYVAR
  5
100000B0
102
{ACAD_REACTORS
330
100000AD
102
}
330
100000AD
100
DictionaryVariables
280
     0
  1
0
  0
DICTIONARY
  5
CD7
330
0
100
AcDbDictionary
280
     1
281
     1
  3
ACAD_XREC_ROUNDTRIP
360
CD8
  0
DICTIONARY
  5
CD9
330
0
100
AcDbDictionary
280
     1
281
     1
  3
ACAD_XREC_ROUNDTRIP
360
CDA
  0
DICTIONARY
  5
CDB
330
0
100
AcDbDictionary
280
     1
281
     1
  3
ACAD_XREC_ROUNDTRIP
360
CDC
  0
DICTIONARY
  5
1000000C
330
1000000B
100
AcDbDictionary
280
     1
281
     1
  3
BUMPTILE
360
1000000E
  3
DIFFUSETILE
360
1000000D
  3
OPACITYTILE
360
10000011
  3
REFLECTIONTILE
360
10000010
  3
REFRACTIONTILE
360
10000012
  3
SPECULARTILE
360
1000000F
  0
DICTIONARY
  5
10000004
330
10000003
100
AcDbDictionary
280
     1
281
     1
  3
BUMPTILE
360
10000006
  3
DIFFUSETILE
360
10000005
  3
OPACITYTILE
360
10000009
  3
REFLECTIONTILE
360
10000008
  3
REFRACTIONTILE
360
1000000A
  3
SPECULARTILE
360
10000007
  0
DICTIONARY
  5
10000014
330
10000013
100
AcDbDictionary
280
     1
281
     1
  3
BUMPTILE
360
10000016
  3
DIFFUSETILE
360
10000015
  3
OPACITYTILE
360
10000019
  3
REFLECTIONTILE
360
10000018
  3
REFRACTIONTILE
360
1000001A
  3
SPECULARTILE
360
10000017
  0
DICTIONARY
  5
100000B6
330
1000002D
100
AcDbDictionary
280
     1
281
     1
  3
ACAD_ROUNDTRIP_2008_TABLESTYLE_CELLSTYLEMAP
360
100000B7
  0
XRECORD
  5
CD8
102
{ACAD_REACTORS
330
CD7
102
}
330
CD7
100
AcDbXrecord
280
     1
102
SHADEPLOT
 70
     0
102
SHADEPLOTRESLEVEL
 70
     2
102
SHADEPLOTCUSTOMDPI
 70
   300
  0
XRECORD
  5
CDA
102
{ACAD_REACTORS
330
CD9
102
}
330
CD9
100
AcDbXrecord
280
     1
102
SHADEPLOT
 70
     0
102
SHADEPLOTRESLEVEL
 70
     2
102
SHADEPLOTCUSTOMDPI
 70
   300
  0
XRECORD
  5
CDC
102
{ACAD_REACTORS
330
CDB
102
}
330
CDB
100
AcDbXrecord
280
     1
102
SHADEPLOT
 70
     0
102
SHADEPLOTRESLEVEL
 70
     2
102
SHADEPLOTCUSTOMDPI
 70
   300
  0
XRECORD
  5
1000000E
102
{ACAD_REACTORS
330
1000000C
102
}
330
1000000C
100
AcDbXrecord
280
     1
270
     1
271
     1
  0
XRECORD
  5
1000000D
102
{ACAD_REACTORS
330
1000000C
102
}
330
1000000C
100
AcDbXrecord
280
     1
270
     1
271
     1
  0
XRECORD
  5
10000011
102
{ACAD_REACTORS
330
1000000C
102
}
330
1000000C
100
AcDbXrecord
280
     1
270
     1
271
     1
  0
XRECORD
  5
10000010
102
{ACAD_REACTORS
330
1000000C
102
}
330
1000000C
100
AcDbXrecord
280
     1
270
     1
271
     1
  0
XRECORD
  5
10000012
102
{ACAD_REACTORS
330
1000000C
102
}
330
1000000C
100
AcDbXrecord
280
     1
270
     1
271
     1
  0
XRECORD
  5
1000000F
102
{ACAD_REACTORS
330
1000000C
102
}
330
1000000C
100
AcDbXrecord
280
     1
270
     1
271
     1
  0
XRECORD
  5
10000006
102
{ACAD_REACTORS
330
10000004
102
}
330
10000004
100
AcDbXrecord
280
     1
270
     1
271
     1
  0
XRECORD
  5
10000005
102
{ACAD_REACTORS
330
10000004
102
}
330
10000004
100
AcDbXrecord
280
     1
270
     1
271
     1
  0
XRECORD
  5
10000009
102
{ACAD_REACTORS
330
10000004
102
}
330
10000004
100
AcDbXrecord
280
     1
270
     1
271
     1
  0
XRECORD
  5
10000008
102
{ACAD_REACTORS
330
10000004
102
}
330
10000004
100
AcDbXrecord
280
     1
270
     1
271
     1
  0
XRECORD
  5
1000000A
102
{ACAD_REACTORS
330
10000004
102
}
330
10000004
100
AcDbXrecord
280
     1
270
     1
271
     1
  0
XRECORD
  5
10000007
102
{ACAD_REACTORS
330
10000004
102
}
330
10000004
100
AcDbXrecord
280
     1
270
     1
271
     1
  0
XRECORD
  5
10000016
102
{ACAD_REACTORS
330
10000014
102
}
330
10000014
100
AcDbXrecord
280
     1
270
     1
271
     1
  0
XRECORD
  5
10000015
102
{ACAD_REACTORS
330
10000014
102
}
330
10000014
100
AcDbXrecord
280
     1
270
     1
271
     1
  0
XRECORD
  5
10000019
102
{ACAD_REACTORS
330
10000014
102
}
330
10000014
100
AcDbXrecord
280
     1
270
     1
271
     1
  0
XRECORD
  5
10000018
102
{ACAD_REACTORS
330
10000014
102
}
330
10000014
100
AcDbXrecord
280
     1
270
     1
271
     1
  0
XRECORD
  5
1000001A
102
{ACAD_REACTORS
330
10000014
102
}
330
10000014
100
AcDbXrecord
280
     1
270
     1
271
     1
  0
XRECORD
  5
10000017
102
{ACAD_REACTORS
330
10000014
102
}
330
10000014
100
AcDbXrecord
280
     1
270
     1
271
     1
  0
CELLSTYLEMAP
  5
100000B7
102
{ACAD_REACTORS
330
100000B6
102
}
330
100000B6
100
AcDbCellStyleMap
 90
        3
300
CELLSTYLE
  1
TABLEFORMAT_BEGIN
 90
        5
170
     1
 91
        0
 92
    32768
 62
   257
 93
        1
300
CONTENTFORMAT
  1
CONTENTFORMAT_BEGIN
 90
        0
 91
        0
 92
      512
 93
        0
300

 40
0.0
140
1.0
 94
        5
 62
     0
340
FC
144
6.0
309
CONTENTFORMAT_END
171
     1
301
MARGIN
  1
CELLMARGIN_BEGIN
 40
1.5
 40
1.5
 40
1.5
 40
1.5
 40
4.5
 40
4.5
309
CELLMARGIN_END
 94
        6
 95
        1
302
GRIDFORMAT
  1
GRIDFORMAT_BEGIN
 90
        0
 91
        1
 62
     0
 92
       -2
340
0
 93
        0
 40
1.125
309
GRIDFORMAT_END
 95
        2
302
GRIDFORMAT
  1
GRIDFORMAT_BEGIN
 90
        0
 91
        1
 62
     0
 92
       -2
340
0
 93
        0
 40
1.125
309
GRIDFORMAT_END
 95
        4
302
GRIDFORMAT
  1
GRIDFORMAT_BEGIN
 90
        0
 91
        1
 62
     0
 92
       -2
340
0
 93
        0
 40
1.125
309
GRIDFORMAT_END
 95
        8
302
GRIDFORMAT
  1
GRIDFORMAT_BEGIN
 90
        0
 91
        1
 62
     0
 92
       -2
340
0
 93
        0
 40
1.125
309
GRIDFORMAT_END
 95
       16
302
GRIDFORMAT
  1
GRIDFORMAT_BEGIN
 90
        0
 91
        1
 62
     0
 92
       -2
340
0
 93
        0
 40
1.125
309
GRIDFORMAT_END
 95
       32
302
GRIDFORMAT
  1
GRIDFORMAT_BEGIN
 90
        0
 91
        1
 62
     0
 92
       -2
340
0
 93
        0
 40
1.125
309
GRIDFORMAT_END
309
TABLEFORMAT_END
  1
CELLSTYLE_BEGIN
 90
        1
 91
        1
300
_TITLE
309
CELLSTYLE_END
300
CELLSTYLE
  1
TABLEFORMAT_BEGIN
 90
        5
170
     1
 91
        0
 92
        0
 62
   257
 93
        1
300
CONTENTFORMAT
  1
CONTENTFORMAT_BEGIN
 90
        0
 91
        0
 92
      512
 93
        0
300

 40
0.0
140
1.0
 94
        5
 62
     0
340
FC
144
4.5
309
CONTENTFORMAT_END
171
     1
301
MARGIN
  1
CELLMARGIN_BEGIN
 40
1.5
 40
1.5
 40
1.5
 40
1.5
 40
4.5
 40
4.5
309
CELLMARGIN_END
 94
        6
 95
        1
302
GRIDFORMAT
  1
GRIDFORMAT_BEGIN
 90
        0
 91
        1
 62
     0
 92
       -2
340
0
 93
        0
 40
1.125
309
GRIDFORMAT_END
 95
        2
302
GRIDFORMAT
  1
GRIDFORMAT_BEGIN
 90
        0
 91
        1
 62
     0
 92
       -2
340
0
 93
        0
 40
1.125
309
GRIDFORMAT_END
 95
        4
302
GRIDFORMAT
  1
GRIDFORMAT_BEGIN
 90
        0
 91
        1
 62
     0
 92
       -2
340
0
 93
        0
 40
1.125
309
GRIDFORMAT_END
 95
        8
302
GRIDFORMAT
  1
GRIDFORMAT_BEGIN
 90
        0
 91
        1
 62
     0
 92
       -2
340
0
 93
        0
 40
1.125
309
GRIDFORMAT_END
 95
       16
302
GRIDFORMAT
  1
GRIDFORMAT_BEGIN
 90
        0
 91
        1
 62
     0
 92
       -2
340
0
 93
        0
 40
1.125
309
GRIDFORMAT_END
 95
       32
302
GRIDFORMAT
  1
GRIDFORMAT_BEGIN
 90
        0
 91
        1
 62
     0
 92
       -2
340
0
 93
        0
 40
1.125
309
GRIDFORMAT_END
309
TABLEFORMAT_END
  1
CELLSTYLE_BEGIN
 90
        2
 91
        1
300
_HEADER
309
CELLSTYLE_END
300
CELLSTYLE
  1
TABLEFORMAT_BEGIN
 90
        5
170
     1
 91
        0
 92
        0
 62
   257
 93
        1
300
CONTENTFORMAT
  1
CONTENTFORMAT_BEGIN
 90
        0
 91
        0
 92
      512
 93
        0
300

 40
0.0
140
1.0
 94
        2
 62
     0
340
FC
144
4.5
309
CONTENTFORMAT_END
171
     1
301
MARGIN
  1
CELLMARGIN_BEGIN
 40
1.5
 40
1.5
 40
1.5
 40
1.5
 40
4.5
 40
4.5
309
CELLMARGIN_END
 94
        6
 95
        1
302
GRIDFORMAT
  1
GRIDFORMAT_BEGIN
 90
        0
 91
        1
 62
     0
 92
       -2
340
0
 93
        0
 40
1.125
309
GRIDFORMAT_END
 95
        2
302
GRIDFORMAT
  1
GRIDFORMAT_BEGIN
 90
        0
 91
        1
 62
     0
 92
       -2
340
0
 93
        0
 40
1.125
309
GRIDFORMAT_END
 95
        4
302
GRIDFORMAT
  1
GRIDFORMAT_BEGIN
 90
        0
 91
        1
 62
     0
 92
       -2
340
0
 93
        0
 40
1.125
309
GRIDFORMAT_END
 95
        8
302
GRIDFORMAT
  1
GRIDFORMAT_BEGIN
 90
        0
 91
        1
 62
     0
 92
       -2
340
0
 93
        0
 40
1.125
309
GRIDFORMAT_END
 95
       16
302
GRIDFORMAT
  1
GRIDFORMAT_BEGIN
 90
        0
 91
        1
 62
     0
 92
       -2
340
0
 93
        0
 40
1.125
309
GRIDFORMAT_END
 95
       32
302
GRIDFORMAT
  1
GRIDFORMAT_BEGIN
 90
        0
 91
        1
 62
     0
 92
       -2
340
0
 93
        0
 40
1.125
309
GRIDFORMAT_END
309
TABLEFORMAT_END
  1
CELLSTYLE_BEGIN
 90
        3
 91
        2
300
_DATA
309
CELLSTYLE_END
  0
ENDSEC
  0
EOF
