  0
SECTION
  2
HEADER
  9
$ACADVER
  1
AC1018
  9
$ACADMAINTVER
 70
     0
  9
$DWGCODEPAGE
  3
ANSI_932
  9
$INSBASE
 10
0.000000
 20
0.000000
 30
0.000000
  9
$EXTMIN
 10
0.000000
 20
0.000000
 30
0.000000
  9
$EXTMAX
 10
186.000000
 20
275.000000
 30
0.000000
  9
$LIMMIN
 10
0.000000
 20
0.000000
  9
$LIMMAX
 10
186.000000
 20
275.000000
  9
$ORTHOMODE
 70
     0
  9
$REGENMODE
 70
     1
  9
$FILLMODE
 70
     1
  9
$QTEXTMODE
 70
     0
  9
$MIRRTEXT
 70
     1
  9
$LTSCALE
 40
1.000000
  9
$ATTMODE
 70
     1
  9
$TEXTSIZE
 40
2.500000
  9
$TRACEWID
 40
1.000000
  9
$TEXTSTYLE
  7
BIGFONT
  9
$CLAYER
  8
0
  9
$CELTYPE
  6
BYLAYER
  9
$CECOLOR
 62
   256
  9
$CELTSCALE
 40
1.000000
  9
$DISPSILH
 70
     0
  9
$DIMSCALE
 40
1.000000
  9
$DIMASZ
 40
2.500000
  9
$DIMEXO
 40
0.625000
  9
$DIMDLI
 40
3.750000
  9
$DIMRND
 40
0.000000
  9
$DIMDLE
 40
0.000000
  9
$DIMEXE
 40
1.250000
  9
$DIMTP
 40
0.000000
  9
$DIMTM
 40
0.000000
  9
$DIMTXT
 40
2.500000
  9
$DIMCEN
 40
2.500000
  9
$DIMTSZ
 40
0.000000
  9
$DIMTOL
 70
     0
  9
$DIMLIM
 70
     0
  9
$DIMTIH
 70
     0
  9
$DIMTOH
 70
     0
  9
$DIMSE1
 70
     0
  9
$DIMSE2
 70
     0
  9
$DIMTAD
 70
     1
  9
$DIMZIN
 70
     8
  9
$DIMBLK
  1

  9
$DIMASO
 70
     1
  9
$DIMSHO
 70
     1
  9
$DIMPOST
  1

  9
$DIMAPOST
  1

  9
$DIMALT
 70
     0
  9
$DIMALTD
 70
     4
  9
$DIMALTF
 40
0.039400
  9
$DIMLFAC
 40
1.000000
  9
$DIMTOFL
 70
     1
  9
$DIMTVP
 40
0.000000
  9
$DIMTIX
 70
     0
  9
$DIMSOXD
 70
     0
  9
$DIMSAH
 70
     0
  9
$DIMBLK1
  1

  9
$DIMBLK2
  1

  9
$DIMSTYLE
  2
STANDARD
  9
$DIMCLRD
 70
     0
  9
$DIMCLRE
 70
     0
  9
$DIMCLRT
 70
     0
  9
$DIMTFAC
 40
1.000000
  9
$DIMGAP
 40
0.625000
  9
$DIMJUST
 70
     0
  9
$DIMSD1
 70
     0
  9
$DIMSD2
 70
     0
  9
$DIMTOLJ
 70
     1
  9
$DIMTZIN
 70
     0
  9
$DIMALTZ
 70
     0
  9
$DIMALTTZ
 70
     0
  9
$DIMUPT
 70
     0
  9
$DIMDEC
 70
     4
  9
$DIMTDEC
 70
     4
  9
$DIMALTU
 70
     8
  9
$DIMALTTD
 70
     4
  9
$DIMTXSTY
  7
STANDARD
  9
$DIMAUNIT
 70
     0
  9
$DIMADEC
 70
     0
  9
$DIMALTRND
 40
0.000000
  9
$DIMAZIN
 70
     0
  9
$DIMDSEP
 70
    46
  9
$DIMATFIT
 70
     3
  9
$DIMFRAC
 70
     0
  9
$DIMLDRBLK
  1

  9
$DIMLUNIT
 70
     2
  9
$DIMLWD
 70
-2
  9
$DIMLWE
 70
-2
  9
$DIMTMOVE
 70
     0
  9
$LUNITS
 70
     2
  9
$LUPREC
 70
     4
  9
$AXISMODE
 70
     0
  9
$SKETCHINC
 40
1.000000
  9
$FILLETRAD
 40
10.000000
  9
$AUNITS
 70
     0
  9
$AUPREC
 70
     0
  9
$MENU
  1
acad
  9
$ELEVATION
 40
0.000000
  9
$PELEVATION
 40
0.000000
  9
$THICKNESS
 40
0.000000
  9
$LIMCHECK
 70
     0
  9
$BLIPMODE
 70
     0
  9
$CHAMFERA
 40
10.000000
  9
$CHAMFERB
 40
10.000000
  9
$CHAMFERC
 40
20.000000
  9
$CHAMFERD
 40
0.000000
  9
$SKPOLY
 70
     0
  9
$TDCREATE
 40
2447851.677998
  9
$TDUCREATE
 40
2447851.677998
  9
$TDUPDATE
 40
2447851.677998
  9
$TDUUPDATE
 40
2447851.677998
  9
$TDINDWG
 40
0.000000
  9
$TDUSRTIMER
 40
0.000000
  9
$USRTIMER
 70
     1
  9
$ANGBASE
 50
0.000000
  9
$ANGDIR
 70
     0
  9
$PDMODE
 70
     0
  9
$PDSIZE
 40
0.000000
  9
$PLINEWID
 40
0.000000
  9
$SPLFRAME
 70
     0
  9
$SPLINETYPE
 70
     6
  9
$SPLINESEGS
 70
     8
  9
$HANDSEED
  5
FFFFFFF
  9
$SURFTAB1
 70
     6
  9
$SURFTAB2
 70
     6
  9
$SURFTYPE
 70
     6
  9
$SURFU
 70
     6
  9
$SURFV
 70
     6
  9
$UCSBASE
  2

  9
$UCSNAME
  2

  9
$UCSORG
 10
0.000000
 20
0.000000
 30
0.000000
  9
$UCSXDIR
 10
1.000000
 20
0.000000
 30
0.000000
  9
$UCSYDIR
 10
0.000000
 20
1.000000
 30
0.000000
  9
$UCSORTHOREF
  2

  9
$UCSORTHOVIEW
 70
     0
  9
$UCSORGTOP
 10
0.000000
 20
0.000000
 30
0.000000
  9
$UCSORGBOTTOM
 10
0.000000
 20
0.000000
 30
0.000000
  9
$UCSORGLEFT
 10
0.000000
 20
0.000000
 30
0.000000
  9
$UCSORGRIGHT
 10
0.000000
 20
0.000000
 30
0.000000
  9
$UCSORGFRONT
 10
0.000000
 20
0.000000
 30
0.000000
  9
$UCSORGBACK
 10
0.000000
 20
0.000000
 30
0.000000
  9
$PUCSBASE
  2

  9
$PUCSNAME
  2

  9
$PUCSORG
 10
0.000000
 20
0.000000
 30
0.000000
  9
$PUCSXDIR
 10
1.000000
 20
0.000000
 30
0.000000
  9
$PUCSYDIR
 10
0.000000
 20
1.000000
 30
0.000000
  9
$PUCSORTHOREF
  2

  9
$PUCSORTHOVIEW
 70
     0
  9
$PUCSORGTOP
 10
0.000000
 20
0.000000
 30
0.000000
  9
$PUCSORGBOTTOM
 10
0.000000
 20
0.000000
 30
0.000000
  9
$PUCSORGLEFT
 10
0.000000
 20
0.000000
 30
0.000000
  9
$PUCSORGRIGHT
 10
0.000000
 20
0.000000
 30
0.000000
  9
$PUCSORGFRONT
 10
0.000000
 20
0.000000
 30
0.000000
  9
$PUCSORGBACK
 10
0.000000
 20
0.000000
 30
0.000000
  9
$USERI1
 70
     0
  9
$USERI2
 70
     0
  9
$USERI3
 70
     0
  9
$USERI4
 70
     0
  9
$USERI5
 70
     0
  9
$USERR1
 40
0.000000
  9
$USERR2
 40
0.000000
  9
$USERR3
 40
0.000000
  9
$USERR4
 40
0.000000
  9
$USERR5
 40
0.000000
  9
$WORLDVIEW
 70
     1
  9
$SHADEDGE
 70
     3
  9
$SHADEDIF
 70
    70
  9
$TILEMODE
 70
     1
  9
$MAXACTVP
 70
    48
  9
$PINSBASE
 10
0.000000
 20
0.000000
 30
0.000000
  9
$PLIMCHECK
 70
     0
  9
$PEXTMIN
 10
100000000000000000000.000000
 20
100000000000000000000.000000
 30
100000000000000000000.000000
  9
$PEXTMAX
 10
-100000000000000000000.000000
 20
-100000000000000000000.000000
 30
-100000000000000000000.000000
  9
$PLIMMIN
 10
0.000000
 20
0.000000
  9
$PLIMMAX
 10
186.000000
 20
275.000000
  9
$UNITMODE
 70
     0
  9
$VISRETAIN
 70
     1
  9
$PLINEGEN
 70
     0
  9
$PSLTSCALE
 70
     1
  9
$TREEDEPTH
 70
  3020
  9
$CMLSTYLE
  2
STANDARD
  9
$CMLJUST
 70
     0
  9
$CMLSCALE
 40
20.000000
  9
$PROXYGRAPHICS
 70
     1
  9
$MEASUREMENT
 70
     1
  9
$CELWEIGHT
370
-1
  9
$ENDCAPS
280
     0
  9
$JOINSTYLE
280
     0
  9
$LWDISPLAY
290
     1
  9
$INSUNITS
 70
     0
  9
$HYPERLINKBASE
  1

  9
$STYLESHEET
  1

  9
$XEDIT
290
     1
  9
$CEPSNTYPE
380
     0
  9
$PSTYLEMODE
290
     1
  9
$FINGERPRINTGUID
  2
{01801163-5BC0-459E-B9C7-2188C09ED432}
  9
$VERSIONGUID
  2
{7F326DDD-95DF-42AD-9861-A0CD9F0961F2}
  9
$EXTNAMES
290
     1
  9
$PSVPSCALE
 40
0.0
  9
$OLESTARTUP
290
     0
  9
$SORTENTS
280
   127
  9
$INDEXCTL
280
     0
  9
$HIDETEXT
280
     1
  9
$XCLIPFRAME
290
     0
  9
$HALOGAP
280
     0
  9
$OBSCOLOR
 70
   257
  9
$OBSLTYPE
280
     0
  9
$INTERSECTIONDISPLAY
280
     0
  9
$INTERSECTIONCOLOR
 70
   257
  9
$DIMASSOC
280
     2
  9
$PROJECTNAME
  1

  0
ENDSEC
  0
SECTION
  2
TABLES
  0
TABLE
  2
VPORT
  5
a2
100
AcDbSymbolTable
 70
     2
  0
VPORT
  5
a5
100
AcDbSymbolTableRecord
100
AcDbViewportTableRecord
  2
*ACTIVE
 70
     0
 10
0.000000
 20
0.000000
 11
1.000000
 21
1.000000
 12
300.000000
 22
200.000000
 13
0.000000
 23
0.000000
 14
10.000000
 24
10.000000
 15
10.000000
 25
10.000000
 16
0.000000
 26
0.000000
 36
1.000000
 17
0.000000
 27
0.000000
 37
0.000000
 40
300.000000
 41
1.600432
 42
50.000000
 43
0.000000
 44
0.000000
 50
0.000000
 51
0.000000
 71
     0
 72
   100
 73
     1
 74
     1
 75
     0
 76
     0
 77
     0
 78
     0
  0
ENDTAB
  0
TABLE
  2
LTYPE
  5
a8
100
AcDbSymbolTable
 70
    11
  0
LTYPE
  5
ab
100
AcDbSymbolTableRecord
100
AcDbLinetypeTableRecord
  2
BYBLOCK
 70
    64
  3
BYBLOCK
 72
    65
 73
     0
 40
0.000000
  0
LTYPE
  5
ae
100
AcDbSymbolTableRecord
100
AcDbLinetypeTableRecord
  2
BYLAYER
 70
    64
  3
BYLAYER
 72
    65
 73
     0
 40
0.000000
  0
LTYPE
  5
b1
100
AcDbSymbolTableRecord
100
AcDbLinetypeTableRecord
  2
CONTINUOUS
 70
    64
  3
実線
 72
    65
 73
     0
 40
0.000000
  0
LTYPE
  5
b4
100
AcDbSymbolTableRecord
100
AcDbLinetypeTableRecord
  2
DASHED
 70
    64
  3
__ __ __ __ __ __ __ __ __ __ __ __ __ __ __
 72
    65
 73
     2
 40
0.750000
 49
0.500000
 74
     0
 49
-0.250000
 74
     0
  0
LTYPE
  5
b7
100
AcDbSymbolTableRecord
100
AcDbLinetypeTableRecord
  2
HIDDEN
 70
    64
  3
_ _ _ _ _ _ _ _ _ _ _ _ _ _ _ _ _ _ _ _ _ _ _
 72
    65
 73
     2
 40
0.375000
 49
0.250000
 74
     0
 49
-0.125000
 74
     0
  0
LTYPE
  5
ba
100
AcDbSymbolTableRecord
100
AcDbLinetypeTableRecord
  2
CENTER
 70
    64
  3
____ _ ____ _ ____ _ ____ _ ____ _ ____ _ ____
 72
    65
 73
     4
 40
2.000000
 49
1.250000
 74
     0
 49
-0.250000
 74
     0
 49
0.250000
 74
     0
 49
-0.250000
 74
     0
  0
LTYPE
  5
bd
100
AcDbSymbolTableRecord
100
AcDbLinetypeTableRecord
  2
PHANTOM
 70
    64
  3
_____ _ _ _____ _ _ _____ _ _ _____ _ _ ____
 72
    65
 73
     6
 40
2.500000
 49
1.250000
 74
     0
 49
-0.250000
 74
     0
 49
0.250000
 74
     0
 49
-0.250000
 74
     0
 49
0.250000
 74
     0
 49
-0.250000
 74
     0
  0
LTYPE
  5
c0
100
AcDbSymbolTableRecord
100
AcDbLinetypeTableRecord
  2
DOT
 70
    64
  3
...............................................
 72
    65
 73
     2
 40
0.250000
 49
0.000000
 74
     0
 49
-0.250000
 74
     0
  0
LTYPE
  5
c3
100
AcDbSymbolTableRecord
100
AcDbLinetypeTableRecord
  2
DASHDOT
 70
    64
  3
__ . __ . __ . __ . __ . __ . __ . __ . __ . __
 72
    65
 73
     4
 40
1.000000
 49
0.500000
 74
     0
 49
-0.250000
 74
     0
 49
0.000000
 74
     0
 49
-0.250000
 74
     0
  0
LTYPE
  5
c6
100
AcDbSymbolTableRecord
100
AcDbLinetypeTableRecord
  2
BORDER
 70
    64
  3
__ __ . __ __ . __ __ . __ __ . __ __ . __ __
 72
    65
 73
     6
 40
1.750000
 49
0.500000
 74
     0
 49
-0.250000
 74
     0
 49
0.500000
 74
     0
 49
-0.250000
 74
     0
 49
0.000000
 74
     0
 49
-0.250000
 74
     0
  0
LTYPE
  5
c9
100
AcDbSymbolTableRecord
100
AcDbLinetypeTableRecord
  2
DIVIDE
 70
    64
  3
__ . . __ . . __ . . __ . . __ . . __ . . __
 72
    65
 73
     6
 40
1.250000
 49
0.500000
 74
     0
 49
-0.250000
 74
     0
 49
0.000000
 74
     0
 49
-0.250000
 74
     0
 49
0.000000
 74
     0
 49
-0.250000
 74
     0
  0
ENDTAB
  0
TABLE
  2
LAYER
  5
cc
100
AcDbSymbolTable
 70
     2
  0
LAYER
  5
cf
100
AcDbSymbolTableRecord
100
AcDbLayerTableRecord
  2
0
 70
     0
 62
     7
  6
CONTINUOUS
370
 65533
390
	F
  0
LAYER
  5
d2
100
AcDbSymbolTableRecord
100
AcDbLayerTableRecord
  2
B
 70
     0
 62
     7
  6
CONTINUOUS
370
 65533
390
	F
  0
LAYER
  5
d5
100
AcDbSymbolTableRecord
100
AcDbLayerTableRecord
  2
C
 70
     0
 62
     7
  6
CONTINUOUS
370
 65533
390
	F
  0
LAYER
  5
d8
100
AcDbSymbolTableRecord
100
AcDbLayerTableRecord
  2
D
 70
     0
 62
     7
  6
CONTINUOUS
370
 65533
390
	F
  0
LAYER
  5
db
100
AcDbSymbolTableRecord
100
AcDbLayerTableRecord
  2
E
 70
     0
 62
     7
  6
CONTINUOUS
370
 65533
390
	F
  0
LAYER
  5
de
100
AcDbSymbolTableRecord
100
AcDbLayerTableRecord
  2
F
 70
     0
 62
     7
  6
CONTINUOUS
370
 65533
390
	F
  0
LAYER
  5
e1
100
AcDbSymbolTableRecord
100
AcDbLayerTableRecord
  2
G
 70
     0
 62
     7
  6
CONTINUOUS
370
 65533
390
	F
  0
LAYER
  5
e4
100
AcDbSymbolTableRecord
100
AcDbLayerTableRecord
  2
H
 70
     0
 62
     7
  6
CONTINUOUS
370
 65533
390
	F
  0
LAYER
  5
e7
100
AcDbSymbolTableRecord
100
AcDbLayerTableRecord
  2
I
 70
     0
 62
     7
  6
CONTINUOUS
370
 65533
390
	F
  0
LAYER
  5
ea
100
AcDbSymbolTableRecord
100
AcDbLayerTableRecord
  2
J
 70
     0
 62
     7
  6
CONTINUOUS
370
 65533
390
	F
  0
LAYER
  5
ed
100
AcDbSymbolTableRecord
100
AcDbLayerTableRecord
  2
K
 70
     0
 62
     7
  6
CONTINUOUS
370
 65533
390
	F
  0
LAYER
  5
f0
100
AcDbSymbolTableRecord
100
AcDbLayerTableRecord
  2
L
 70
     0
 62
     7
  6
CONTINUOUS
370
 65533
390
	F
  0
LAYER
  5
f3
100
AcDbSymbolTableRecord
100
AcDbLayerTableRecord
  2
M
 70
     0
 62
     7
  6
CONTINUOUS
370
 65533
390
	F
  0
LAYER
  5
f6
100
AcDbSymbolTableRecord
100
AcDbLayerTableRecord
  2
N
 70
     0
 62
     7
  6
CONTINUOUS
370
 65533
390
	F
  0
ENDTAB
  0
TABLE
  2
STYLE
  5
f9
100
AcDbSymbolTable
 70
     2
  0
STYLE
  5
fc
100
AcDbSymbolTableRecord
100
AcDbTextStyleTableRecord
  2
STANDARD
 70
     0
 40
0.000000
 41
0.500000
 50
0.000000
 71
     0
 42
0.300000
  3
txt
  4

  0
STYLE
  5
ff
100
AcDbSymbolTableRecord
100
AcDbTextStyleTableRecord
  2
BIGFONT
 70
    64
 40
0.000000
 41
1.000000
 50
0.000000
 71
     0
 42
0.200000
  3

  4
bigfont
  0
ENDTAB
  0
TABLE
  2
VIEW
  5
102
100
AcDbSymbolTable
 70
     0
  0
ENDTAB
  0
TABLE
  2
UCS
  5
105
100
AcDbSymbolTable
 70
     0
  0
ENDTAB
  0
TABLE
  2
APPID
  5
108
100
AcDbSymbolTable
 70
     3
  0
APPID
  5
10b
100
AcDbSymbolTableRecord
100
AcDbRegAppTableRecord
  2
ACAD
 70
     0
  0
APPID
  5
10e
100
AcDbSymbolTableRecord
100
AcDbRegAppTableRecord
  2
CONTENTTABDATA
 70
     0
  0
APPID
  5
111
100
AcDbSymbolTableRecord
100
AcDbRegAppTableRecord
  2
CONTENTCURRENTTAB
 70
     0
  0
ENDTAB
  0
TABLE
  2
DIMSTYLE
  5
114
330
     0
100
AcDbSymbolTable
 70
     2
100
AcDbDimStyleTable
 70
     1
  0
DIMSTYLE
105
117
100
AcDbSymbolTableRecord
100
AcDbDimStyleTableRecord
  2
STANDARD
 70
     0
  3

  4

  5

  6

  7

 40
1.000000
 41
0.180000
 42
0.062500
 43
0.380000
 44
0.180000
 45
0.000000
 46
0.000000
 47
0.000000
 48
0.000000
140
0.180000
141
0.090000
142
0.000000
143
25.400000
144
1.000000
145
0.000000
146
1.000000
147
0.090000
 71
     0
 72
     0
 73
     1
 74
     1
 75
     0
 76
     0
 77
     0
 78
     0
170
     0
171
     2
172
     0
173
     0
174
     0
175
     0
176
     0
177
     0
178
     0
270
     2
271
     4
272
     4
273
     2
274
     2
340
fc
275
     0
280
     0
281
     0
282
     0
283
     1
284
     0
285
     0
286
     0
287
     3
288
     0
  0
ENDTAB
  0
TABLE
  2
BLOCK_RECORD
  5
11a
100
AcDbSymbolTable
 70
     0
  0
BLOCK_RECORD
  5
11d
100
AcDbSymbolTableRecord
100
AcDbBlockTableRecord
  2
*MODEL_SPACE
  0
BLOCK_RECORD
  5
120
100
AcDbSymbolTableRecord
100
AcDbBlockTableRecord
  2
*PAPER_SPACE
  0
ENDTAB
  0
ENDSEC
  0
SECTION
  2
BLOCKS
  0
BLOCK
  5
123
330
124
100
AcDbEntity
  8
0
100
AcDbBlockBegin
  2
*Model_Space
 70
     0
 10
0.000000
 20
0.000000
 30
0.000000
  3
*Model_Space
  1
 
  0
ENDBLK
  5
126
330
124
100
AcDbEntity
  8
0
100
AcDbBlockEnd
  0
BLOCK
  5
129
330
12a
100
AcDbEntity
 67
     1
  8
0
100
AcDbBlockBegin
  2
*Paper_Space
 70
     0
 10
0.000000
 20
0.000000
 30
0.000000
  3
*Paper_Space
  1
 
  0
ENDBLK
  5
12c
330
12d
100
AcDbEntity
 67
     1
  8
0
100
AcDbBlockEnd
  0
ENDSEC
  0
SECTION
  2
ENTITIES
  0
LWPOLYLINE
  5
12f
100
AcDbEntity
  8
0
100
AcDbPolyline
 90
     4
 70
     1
 43
0.200000
 10
75.875000
 20
241.125000
 10
75.875000
 20
240.525000
 10
78.950000
 20
240.525000
 10
78.950000
 20
241.125000
  0
LWPOLYLINE
  5
13a
100
AcDbEntity
  8
0
100
AcDbPolyline
 90
     4
 70
     1
 43
0.200000
 10
76.275000
 20
202.200000
 10
76.275000
 20
199.750000
 10
78.350000
 20
199.750000
 10
78.350000
 20
202.200000
  0
LWPOLYLINE
  5
145
100
AcDbEntity
  8
0
100
AcDbPolyline
 90
     4
 70
     1
 43
0.200000
 10
76.500000
 20
199.750000
 10
76.500000
 20
199.125000
 10
78.125000
 20
199.125000
 10
78.125000
 20
199.750000
  0
LWPOLYLINE
  5
150
100
AcDbEntity
  8
0
100
AcDbPolyline
 90
     4
 70
     1
 43
0.200000
 10
76.675000
 20
202.200000
 10
76.675000
 20
202.800000
 10
77.900000
 20
202.800000
 10
77.900000
 20
202.200000
  0
LINE
  5
15b
100
AcDbEntity
  8
0
370
    20
100
AcDbLine
 10
75.875000
 20
240.525000
 11
46.350000
 21
171.650000
  0
LINE
  5
15e
100
AcDbEntity
  8
0
370
    20
100
AcDbLine
 10
76.675000
 20
240.525000
 11
47.575000
 21
171.650000
  0
LINE
  5
161
100
AcDbEntity
  8
0
370
    20
100
AcDbLine
 10
78.125000
 20
240.325000
 11
99.450000
 21
171.225000
  0
LINE
  5
164
100
AcDbEntity
  8
0
370
    20
100
AcDbLine
 10
78.950000
 20
240.525000
 11
101.075000
 21
171.050000
  0
ELLIPSE
  5
167
100
AcDbEntity
  8
0
370
    40
100
AcDbEllipse
 10
77.300000
 20
237.250000
 30
0.000000
 11
0.000000000000000
 21
1.250000
 31
0.000000
210
0.000000
220
0.000000
230
1.000000
 40
0.640000
 41
0.000000
 42
6.283185
  0
LWPOLYLINE
  5
16a
100
AcDbEntity
  8
0
100
AcDbPolyline
 90
     4
 70
     1
 43
0.200000
 10
77.525000
 20
234.175000
 10
77.525000
 20
232.300000
 10
78.525000
 20
232.300000
 10
78.525000
 20
234.175000
  0
HATCH
  5
175
330
F6
100
AcDbEntity
  8
0
100
AcDbHatch
 10
0.0
 20
0.0
 30
0.0
210
0.0
220
0.0
230
1.0
  2
SOLID
 70
     1
 71
     0
 91
     1
 92
     7
 72
     0
 73
     1
 93
     4
 10
77.725000
 20
232.300000
 10
77.725000
 20
230.475000
 10
78.350000
 20
230.475000
 10
78.350000
 20
232.300000
 97
     1
330
178
 75
     0
 76
     1
 47
0.651316
 98
     1
 10
0.0
 20
0.0
  0
LWPOLYLINE
  5
178
330
F6
100
AcDbEntity
  8
0
100
AcDbPolyline
 90
     4
 70
     1
 43
0.200000
 10
77.725000
 20
232.300000
 10
77.725000
 20
230.475000
 10
78.350000
 20
230.475000
 10
78.350000
 20
232.300000
  0
LWPOLYLINE
  5
183
100
AcDbEntity
  8
0
100
AcDbPolyline
 90
     4
 70
     1
 43
0.200000
 10
77.725000
 20
232.300000
 10
77.725000
 20
230.475000
 10
78.350000
 20
230.475000
 10
78.350000
 20
232.300000
  0
LWPOLYLINE
  5
18e
100
AcDbEntity
  8
0
100
AcDbPolyline
 90
     4
 70
     1
 43
0.200000
 10
75.875000
 20
190.700000
 10
75.875000
 20
186.400000
 10
78.750000
 20
186.400000
 10
78.750000
 20
190.700000
  0
LWPOLYLINE
  5
199
100
AcDbEntity
  8
0
100
AcDbPolyline
 90
     4
 70
     1
 43
0.200000
 10
78.525000
 20
186.400000
 10
78.525000
 20
182.300000
 10
76.075000
 20
182.300000
 10
76.075000
 20
186.400000
  0
LWPOLYLINE
  5
1a4
100
AcDbEntity
  8
0
100
AcDbPolyline
 90
     4
 70
     1
 43
0.200000
 10
76.500000
 20
182.300000
 10
76.500000
 20
179.025000
 10
78.125000
 20
179.025000
 10
78.125000
 20
182.300000
  0
LWPOLYLINE
  5
1af
100
AcDbEntity
  8
0
100
AcDbPolyline
 90
     4
 70
     1
 43
0.200000
 10
78.350000
 20
179.025000
 10
78.350000
 20
178.400000
 10
76.275000
 20
178.400000
 10
76.275000
 20
179.025000
  0
LWPOLYLINE
  5
1ba
100
AcDbEntity
  8
0
100
AcDbPolyline
 90
     4
 70
     1
 43
0.200000
 10
75.875000
 20
178.400000
 10
75.875000
 20
176.975000
 10
78.750000
 20
176.975000
 10
78.750000
 20
178.400000
  0
LWPOLYLINE
  5
1c5
100
AcDbEntity
  8
0
100
AcDbPolyline
 90
     4
 70
     1
 43
0.200000
 10
74.650000
 20
190.925000
 10
74.650000
 20
184.150000
 10
64.400000
 20
184.150000
 10
64.400000
 20
190.925000
  0
LWPOLYLINE
  5
1d0
100
AcDbEntity
  8
0
100
AcDbPolyline
 90
     4
 70
     1
 43
0.200000
 10
58.450000
 20
182.300000
 10
58.450000
 20
181.700000
 10
61.325000
 20
181.700000
 10
61.325000
 20
182.300000
  0
LWPOLYLINE
  5
1db
100
AcDbEntity
  8
0
100
AcDbPolyline
 90
     4
 70
     1
 43
0.200000
 10
74.650000
 20
181.900000
 10
74.650000
 20
174.925000
 10
72.400000
 20
174.925000
 10
72.400000
 20
181.900000
  0
LWPOLYLINE
  5
1e6
100
AcDbEntity
  8
0
100
AcDbPolyline
 90
     4
 70
     1
 43
0.200000
 10
58.875000
 20
190.925000
 10
58.875000
 20
182.300000
 10
61.325000
 20
182.300000
 10
61.325000
 20
190.925000
  0
LWPOLYLINE
  5
1f1
100
AcDbEntity
  8
0
100
AcDbPolyline
 90
     4
 70
     1
 43
0.200000
 10
61.325000
 20
188.650000
 10
61.325000
 20
186.400000
 10
62.350000
 20
186.400000
 10
62.350000
 20
188.650000
  0
LWPOLYLINE
  5
1fc
100
AcDbEntity
  8
0
100
AcDbPolyline
 90
     4
 70
     1
 43
0.200000
 10
61.325000
 20
184.150000
 10
61.325000
 20
181.900000
 10
74.650000
 20
181.900000
 10
74.650000
 20
184.150000
  0
LWPOLYLINE
  5
207
100
AcDbEntity
  8
0
100
AcDbPolyline
 90
     4
 70
     1
 43
0.200000
 10
75.675000
 20
191.125000
 10
75.675000
 20
190.700000
 10
78.950000
 20
190.700000
 10
78.950000
 20
191.125000
  0
LWPOLYLINE
  5
212
100
AcDbEntity
  8
0
100
AcDbPolyline
 90
     4
 70
     1
 43
0.200000
 10
76.275000
 20
191.725000
 10
76.275000
 20
191.125000
 10
78.525000
 20
191.125000
 10
78.525000
 20
191.725000
  0
LWPOLYLINE
  5
21d
100
AcDbEntity
  8
0
100
AcDbPolyline
 90
     4
 70
     1
 43
0.200000
 10
76.900000
 20
199.125000
 10
76.900000
 20
191.725000
 10
77.900000
 20
191.725000
 10
77.900000
 20
199.125000
  0
ELLIPSE
  5
228
100
AcDbEntity
  8
0
370
    20
100
AcDbEllipse
 10
64.400000
 20
187.625000
 30
0.000000
 11
0.00000000000000
 21
3.275000
 31
0.000000
210
0.000000
220
0.000000
230
1.000000
 40
0.618321
 41
0.000000
 42
3.141593
  0
ELLIPSE
  5
22b
100
AcDbEntity
  8
0
370
    20
100
AcDbEllipse
 10
65.850000
 20
194.175000
 30
0.000000
 11
0.000000000000000
 21
3.250000
 31
0.000000
210
0.000000
220
0.000000
230
1.000000
 40
0.623077
 41
0.000000
 42
3.141593
  0
LWPOLYLINE
  5
22e
100
AcDbEntity
  8
0
100
AcDbPolyline
 90
     4
 70
     1
 43
0.200000
 10
74.650000
 20
190.700000
 10
74.650000
 20
186.200000
 10
75.475000
 20
186.200000
 10
75.475000
 20
190.700000
  0
LWPOLYLINE
  5
239
100
AcDbEntity
  8
0
100
AcDbPolyline
 90
     4
 70
     1
 43
0.200000
 10
67.475000
 20
195.425000
 10
67.475000
 20
193.175000
 10
70.550000
 20
193.175000
 10
70.550000
 20
195.425000
  0
LWPOLYLINE
  5
244
100
AcDbEntity
  8
0
100
AcDbPolyline
 90
     4
 70
     1
 43
0.200000
 10
71.975000
 20
195.225000
 10
71.975000
 20
193.575000
 10
73.025000
 20
193.575000
 10
73.025000
 20
195.225000
  0
LINE
  5
24f
100
AcDbEntity
  8
0
370
    20
100
AcDbLine
 10
65.850000
 20
197.475000
 11
65.850000
 21
190.925000
  0
LINE
  5
252
100
AcDbEntity
  8
0
370
    20
100
AcDbLine
 10
75.475000
 20
190.300000
 11
75.875000
 21
190.300000
  0
LINE
  5
255
100
AcDbEntity
  8
0
370
    20
100
AcDbLine
 10
75.875000
 20
186.825000
 11
75.475000
 21
186.825000
  0
MTEXT
  5
258
100
AcDbEntity
  8
0
100
AcDbMText
 10
82.650000
 20
238.950000
 40
1.856250
 41
35.640000
 71
     1
 72
     5
  1
\fＭＳ 明朝|b0|i0|c128|p17;\T1.4384;スナッチブロック
 44
1.199166
 73
     1
  7
BIGFONT
  0
MTEXT
  5
25b
100
AcDbEntity
  8
0
100
AcDbMText
 10
83.275000
 20
233.850000
 40
1.856250
 41
49.005000
 71
     1
 72
     5
  1
\fＭＳ 明朝|b0|i0|c128|p17;\T1.4384;ホイスティングスイベル
 44
1.199166
 73
     1
  7
BIGFONT
  0
MTEXT
  5
25e
100
AcDbEntity
  8
0
100
AcDbMText
 10
83.275000
 20
202.900000
 40
1.856250
 41
40.095000
 71
     1
 72
     5
  1
\fＭＳ 明朝|b0|i0|c128|p17;\T1.4384;ウォータースイベル
 44
1.199166
 73
     1
  7
BIGFONT
  0
MTEXT
  5
261
100
AcDbEntity
  8
0
100
AcDbMText
 10
85.275000
 20
194.275000
 40
1.856250
 41
35.640000
 71
     1
 72
     5
  1
\fＭＳ 明朝|b0|i0|c128|p17;\T1.4384;デリバリーホース
 44
1.191591
 73
     1
  7
BIGFONT
  0
MTEXT
  5
264
100
AcDbEntity
  8
0
100
AcDbMText
 10
86.450000
 20
185.750000
 40
1.856250
 41
26.730000
 71
     1
 72
     5
  1
\fＭＳ 明朝|b0|i0|c128|p17;\T1.4384;ロッドホルダ
 44
1.199166
 73
     1
  7
BIGFONT
  0
LINE
  5
267
100
AcDbEntity
  8
0
370
    20
100
AcDbLine
 10
63.350000
 20
181.900000
 11
63.350000
 21
174.925000
  0
LWPOLYLINE
  5
26a
100
AcDbEntity
  8
0
100
AcDbPolyline
 90
     6
 70
     0
 43
0.200000
 10
67.875000
 20
174.925000
 10
67.875000
 20
181.075000
 10
64.800000
 20
181.075000
 10
64.800000
 20
179.425000
 10
63.775000
 20
179.425000
 10
63.775000
 20
174.925000
  0
LINE
  5
279
100
AcDbEntity
  8
0
370
    20
100
AcDbLine
 10
58.025000
 20
179.850000
 11
58.025000
 21
177.175000
  0
LINE
  5
27c
100
AcDbEntity
  8
0
370
    20
100
AcDbLine
 10
58.675000
 20
176.150000
 11
60.700000
 21
176.150000
  0
LINE
  5
27f
100
AcDbEntity
  8
0
370
    20
100
AcDbLine
 10
60.700000
 20
181.075000
 11
58.675000
 21
181.075000
  0
ELLIPSE
  5
282
100
AcDbEntity
  8
0
370
    20
100
AcDbEllipse
 10
58.675000
 20
179.850000
 30
0.000000
 11
-0.000000000000000
 21
-1.225000
 31
0.000000
210
0.000000
220
0.000000
230
1.000000
 40
0.510204
 41
3.141593
 42
4.709321
  0
ELLIPSE
  5
285
100
AcDbEntity
  8
0
370
    20
100
AcDbEllipse
 10
58.675000
 20
177.375000
 30
0.000000
 11
-0.000000000000000
 21
-1.225000
 31
0.000000
210
0.000000
220
0.000000
230
1.000000
 40
0.510204
 41
4.709321
 42
0.000000
  0
ELLIPSE
  5
288
100
AcDbEntity
  8
0
370
    20
100
AcDbEllipse
 10
60.700000
 20
179.850000
 30
0.000000
 11
0.000000000000000
 21
1.225000
 31
0.000000
210
0.000000
220
0.000000
230
1.000000
 40
0.510204
 41
4.709321
 42
0.000000
  0
LINE
  5
28b
100
AcDbEntity
  8
0
370
    20
100
AcDbLine
 10
61.325000
 20
177.600000
 11
61.325000
 21
180.250000
  0
ELLIPSE
  5
28e
100
AcDbEntity
  8
0
370
    20
100
AcDbEllipse
 10
60.700000
 20
177.375000
 30
0.000000
 11
0.000000000000000
 21
1.225000
 31
0.000000
210
0.000000
220
0.000000
230
1.000000
 40
0.510204
 41
3.141593
 42
4.709321
  0
MTEXT
  5
291
100
AcDbEntity
  8
0
100
AcDbMText
 10
56.600000
 20
185.625000
 40
1.856250
 41
13.365000
 71
     1
 72
     5
  1
\f@ＭＳ 明朝|b0|i0|c128|p17;\T1.8854;原動機
 44
1.199166
 73
     1
 11
-0.000000000000000
 21
-1.000000
 31
0.000000
  7
BIGFONT
  0
MTEXT
  5
294
100
AcDbEntity
  8
0
100
AcDbMText
 10
82.850000
 20
193.500000
 40
1.050000
 41
17.640000
 71
     1
 72
     5
  1
\f@ＭＳ 明朝|b0|i0|c128|p17;\H1.05;\T1.8854;スイベルヘッ\T2.8139;ド
 44
1.313245
 73
     1
 11
-0.000000000000000
 21
-1.000000
 31
0.000000
  7
BIGFONT
  0
MTEXT
  5
297
100
AcDbEntity
  8
0
100
AcDbMText
 10
58.850000
 20
168.700000
 40
1.856250
 41
26.730000
 71
     1
 72
     5
  1
\f@ＭＳ 明朝|b0|i0|c128|p17;\T1.8854;オイルタンク
 44
1.199166
 73
     1
 11
-0.000000000000000
 21
-1.000000
 31
0.000000
  7
BIGFONT
  0
LINE
  5
29a
100
AcDbEntity
  8
0
370
    40
100
AcDbLine
 10
75.875000
 20
29.125000
 11
75.875000
 21
13.875000
  0
LINE
  5
29d
100
AcDbEntity
  8
0
370
    40
100
AcDbLine
 10
78.400000
 20
29.100000
 11
78.400000
 21
13.850000
  0
LINE
  5
2a0
100
AcDbEntity
  8
0
370
    40
100
AcDbLine
 10
75.550000
 20
16.725000
 11
75.550000
 21
13.850000
  0
LINE
  5
2a3
100
AcDbEntity
  8
0
370
    40
100
AcDbLine
 10
78.800000
 20
13.850000
 11
78.800000
 21
16.725000
  0
LINE
  5
2a6
100
AcDbEntity
  8
0
370
    20
100
AcDbLine
 10
77.725000
 20
176.975000
 11
76.675000
 21
176.975000
  0
LINE
  5
2a9
100
AcDbEntity
  8
0
370
    40
100
AcDbLine
 10
75.700000
 20
29.175000
 11
76.750000
 21
29.175000
  0
LINE
  5
2ac
100
AcDbEntity
  8
0
370
    40
100
AcDbLine
 10
78.600000
 20
29.275000
 11
77.650000
 21
29.275000
  0
ELLIPSE
  5
2af
100
AcDbEntity
  8
0
370
    20
100
AcDbEllipse
 10
78.350000
 20
202.600000
 30
0.000000
 11
0.000000000000000
 21
0.825000
 31
0.000000
210
0.000000
220
0.000000
230
1.000000
 40
0.939394
 41
5.175651
 42
1.331495
  0
ELLIPSE
  5
2b2
100
AcDbEntity
  8
0
370
    20
100
AcDbEllipse
 10
78.350000
 20
202.600000
 30
0.000000
 11
0.000000000000000
 21
1.425000
 31
0.000000
210
0.000000
220
0.000000
230
1.000000
 40
0.982456
 41
5.194059
 42
1.426602
  0
LINE
  5
2b5
100
AcDbEntity
  8
0
370
    20
100
AcDbLine
 10
76.675000
 20
176.975000
 11
76.675000
 21
173.075000
  0
LINE
  5
2b8
100
AcDbEntity
  8
0
370
    20
100
AcDbLine
 10
77.725000
 20
176.975000
 11
77.725000
 21
173.075000
  0
ELLIPSE
  5
2bb
100
AcDbEntity
  8
0
370
    40
100
AcDbEllipse
 10
75.675000
 20
173.700000
 30
0.000000
 11
0.000000000000000
 21
0.825000
 31
0.000000
210
0.000000
220
0.000000
230
1.000000
 40
0.969697
 41
4.917942
 42
1.365243
  0
LINE
  5
2be
100
AcDbEntity
  8
0
370
    40
100
AcDbLine
 10
74.850000
 20
174.100000
 11
74.850000
 21
173.075000
  0
LINE
  5
2c1
100
AcDbEntity
  8
0
370
    40
100
AcDbLine
 10
76.500000
 20
173.900000
 11
76.675000
 21
173.075000
  0
POINT
  5
2c4
100
AcDbEntity
  8
0
100
AcDbPoint
 10
75.675000
 20
173.700000
  0
LINE
  5
2c7
100
AcDbEntity
  8
0
370
    40
100
AcDbLine
 10
74.850000
 20
173.075000
 11
76.675000
 21
173.075000
  0
ELLIPSE
  5
2ca
100
AcDbEntity
  8
0
370
    40
100
AcDbEllipse
 10
78.525000
 20
173.700000
 30
0.000000
 11
0.000000000000000
 21
0.825000
 31
0.000000
210
0.000000
220
0.000000
230
1.000000
 40
0.969697
 41
4.917942
 42
1.365243
  0
LINE
  5
2cd
100
AcDbEntity
  8
0
370
    40
100
AcDbLine
 10
79.350000
 20
174.100000
 11
79.350000
 21
173.075000
  0
LINE
  5
2d0
100
AcDbEntity
  8
0
370
    40
100
AcDbLine
 10
77.725000
 20
173.900000
 11
77.525000
 21
173.075000
  0
POINT
  5
2d3
100
AcDbEntity
  8
0
100
AcDbPoint
 10
78.525000
 20
173.700000
  0
LINE
  5
2d6
100
AcDbEntity
  8
0
370
    40
100
AcDbLine
 10
79.350000
 20
173.075000
 11
77.525000
 21
173.075000
  0
POINT
  5
2d9
100
AcDbEntity
  8
0
100
AcDbPoint
 10
46.575000
 20
174.100000
  0
POINT
  5
2dc
100
AcDbEntity
  8
0
100
AcDbPoint
 10
74.025000
 20
174.100000
  0
CIRCLE
  5
2df
100
AcDbEntity
  8
0
370
    20
100
AcDbCircle
 10
73.400000
 20
192.150000
 40
0.625000
  0
LWPOLYLINE
  5
2e2
100
AcDbEntity
  8
0
100
AcDbPolyline
 90
     5
 70
     0
 43
0.200000
 10
74.650000
 20
191.125000
 10
74.650000
 20
197.675000
 10
73.825000
 20
197.675000
 10
73.025000
 20
196.650000
 10
73.025000
 20
193.375000
  0
LWPOLYLINE
  5
2ef
100
AcDbEntity
  8
0
100
AcDbPolyline
 90
     4
 70
     1
 43
0.200000
 10
66.025000
 20
192.550000
 10
66.025000
 20
190.925000
 10
67.475000
 20
190.925000
 10
67.475000
 20
192.550000
  0
LWPOLYLINE
  5
2fa
100
AcDbEntity
  8
0
100
AcDbPolyline
 90
     4
 70
     1
 43
0.200000
 10
66.025000
 20
192.150000
 10
66.025000
 20
197.675000
 10
67.475000
 20
197.675000
 10
67.475000
 20
192.150000
  0
LWPOLYLINE
  5
305
100
AcDbEntity
  8
0
100
AcDbPolyline
 90
     4
 70
     1
 43
0.200000
 10
66.450000
 20
199.925000
 10
66.450000
 20
192.550000
 10
66.850000
 20
192.550000
 10
66.850000
 20
199.925000
  0
LWPOLYLINE
  5
310
100
AcDbEntity
  8
0
100
AcDbPolyline
 90
     4
 70
     1
 43
0.200000
 10
70.550000
 20
192.550000
 10
70.550000
 20
190.925000
 10
71.975000
 20
190.925000
 10
71.975000
 20
192.550000
  0
LWPOLYLINE
  5
31b
100
AcDbEntity
  8
0
100
AcDbPolyline
 90
     4
 70
     1
 43
0.200000
 10
70.550000
 20
192.150000
 10
70.550000
 20
197.675000
 10
71.975000
 20
197.675000
 10
71.975000
 20
192.150000
  0
LWPOLYLINE
  5
326
100
AcDbEntity
  8
0
100
AcDbPolyline
 90
     4
 70
     1
 43
0.200000
 10
71.175000
 20
199.925000
 10
71.175000
 20
192.550000
 10
71.575000
 20
192.550000
 10
71.575000
 20
199.925000
  0
POINT
  5
331
100
AcDbEntity
  8
0
100
AcDbPoint
 10
66.650000
 20
200.125000
  0
POINT
  5
334
100
AcDbEntity
  8
0
100
AcDbPoint
 10
71.350000
 20
200.125000
  0
ELLIPSE
  5
337
100
AcDbEntity
  8
0
370
    20
100
AcDbEllipse
 10
73.400000
 20
192.150000
 30
0.000000
 11
1.250000
 21
-0.000000000000000
 31
0.000000
210
0.000000
220
0.000000
230
1.000000
 40
0.980000
 41
0.000000
 42
2.929903
  0
LINE
  5
33a
100
AcDbEntity
  8
0
370
    20
100
AcDbLine
 10
72.175000
 20
192.350000
 11
72.175000
 21
190.925000
  0
LINE
  5
33d
100
AcDbEntity
  8
0
  6
DOT
 62
     7
370
    20
100
AcDbLine
 10
67.475000
 20
196.025000
 11
70.550000
 21
196.025000
  0
LINE
  5
340
100
AcDbEntity
  8
0
  6
DOT
 62
     7
370
    20
100
AcDbLine
 10
67.475000
 20
192.550000
 11
70.550000
 21
192.550000
  0
LINE
  5
343
100
AcDbEntity
  8
0
370
    20
100
AcDbLine
 10
67.875000
 20
196.025000
 11
67.475000
 21
194.175000
  0
LINE
  5
346
100
AcDbEntity
  8
0
370
    20
100
AcDbLine
 10
67.475000
 20
192.550000
 11
68.300000
 21
196.025000
  0
LINE
  5
349
100
AcDbEntity
  8
0
370
    20
100
AcDbLine
 10
67.875000
 20
192.550000
 11
68.700000
 21
196.025000
  0
LINE
  5
34c
100
AcDbEntity
  8
0
370
    20
100
AcDbLine
 10
68.300000
 20
192.550000
 11
69.100000
 21
196.025000
  0
LINE
  5
34f
100
AcDbEntity
  8
0
370
    20
100
AcDbLine
 10
68.700000
 20
192.550000
 11
69.525000
 21
196.025000
  0
LINE
  5
352
100
AcDbEntity
  8
0
370
    20
100
AcDbLine
 10
69.100000
 20
192.550000
 11
69.925000
 21
196.025000
  0
LINE
  5
355
100
AcDbEntity
  8
0
370
    20
100
AcDbLine
 10
69.525000
 20
192.550000
 11
70.350000
 21
196.025000
  0
LINE
  5
358
100
AcDbEntity
  8
0
370
    20
100
AcDbLine
 10
70.350000
 20
194.400000
 11
69.925000
 21
192.550000
  0
LINE
  5
35b
100
AcDbEntity
  8
0
  6
DOT
 62
     7
370
    60
100
AcDbLine
 10
69.525000
 20
196.250000
 11
70.550000
 21
201.150000
  0
LWPOLYLINE
  5
35e
100
AcDbEntity
  8
0
100
AcDbPolyline
 90
     4
 70
     1
 43
0.200000
 10
76.900000
 20
241.725000
 10
76.900000
 20
241.125000
 10
77.900000
 20
241.125000
 10
77.900000
 20
241.725000
  0
ARC
  5
369
100
AcDbEntity
  8
0
370
    40
100
AcDbCircle
 10
77.300000
 20
239.475000
 40
0.600000
100
AcDbArc
 50
180.000000
 51
81.000000
  0
LINE
  5
36c
100
AcDbEntity
  8
0
370
    40
100
AcDbLine
 10
77.300000
 20
240.125000
 11
77.300000
 21
240.725000
  0
LWPOLYLINE
  5
36f
100
AcDbEntity
  8
0
100
AcDbPolyline
 90
     6
 70
     0
 43
0.200000
 10
77.300000
 20
238.075000
 10
77.725000
 20
238.075000
 10
77.300000
 20
238.075000
 10
76.900000
 20
237.450000
 10
77.125000
 20
236.625000
 10
77.525000
 20
236.400000
  0
LINE
  5
37e
100
AcDbEntity
  8
0
370
    40
100
AcDbLine
 10
77.300000
 20
239.300000
 11
77.300000
 21
238.250000
  0
LINE
  5
381
100
AcDbEntity
  8
0
  6
DOT
 62
     7
370
    60
100
AcDbLine
 10
77.925000
 20
234.925000
 11
77.900000
 21
236.400000
  0
MTEXT
  5
384
100
AcDbEntity
  8
0
100
AcDbMText
 10
83.675000
 20
133.175000
 40
1.856250
 41
22.275000
 71
     1
 72
     5
  1
\fＭＳ 明朝|b0|i0|c128|p17;\T1.4384;ケーシング
 44
1.199166
 73
     1
  7
BIGFONT
  0
MTEXT
  5
387
100
AcDbEntity
  8
0
100
AcDbMText
 10
85.250000
 20
53.050000
 40
1.856250
 41
35.640000
 71
     1
 72
     5
  1
\fＭＳ 明朝|b0|i0|c128|p17;\T1.4384;ボーリングロッド
 44
1.191591
 73
     1
  7
BIGFONT
  0
MTEXT
  5
38a
100
AcDbEntity
  8
0
100
AcDbMText
 10
84.300000
 20
28.000000
 40
1.856250
 41
26.730000
 71
     1
 72
     5
  1
\fＭＳ 明朝|b0|i0|c128|p17;\T1.4384;コアチューブ
 44
1.191591
 73
     1
  7
BIGFONT
  0
MTEXT
  5
38d
100
AcDbEntity
  8
0
100
AcDbMText
 10
83.175000
 20
15.625000
 40
1.856250
 41
31.185000
 71
     1
 72
     5
  1
\fＭＳ 明朝|b0|i0|c128|p17;\T1.4384;メタルクラウン
 44
1.191591
 73
     1
  7
BIGFONT
  0
LWPOLYLINE
  5
390
100
AcDbEntity
  8
0
100
AcDbPolyline
 90
     4
 70
     0
 43
0.200000
 10
74.950000
 20
79.750000
 10
72.900000
 20
79.850000
 10
52.775000
 20
79.450000
 10
35.575000
 20
79.450000
  0
LWPOLYLINE
  5
39b
100
AcDbEntity
  8
0
100
AcDbPolyline
 90
     3
 70
     0
 43
0.200000
 10
74.925000
 20
43.125000
 10
67.550000
 20
42.800000
 10
55.150000
 20
42.500000
  0
POINT
  5
3a4
100
AcDbEntity
  8
0
100
AcDbPoint
 10
59.325000
 20
55.000000
  0
POINT
  5
3a7
100
AcDbEntity
  8
0
100
AcDbPoint
 10
61.375000
 20
54.825000
  0
POINT
  5
3aa
100
AcDbEntity
  8
0
100
AcDbPoint
 10
60.350000
 20
53.375000
  0
POINT
  5
3ad
100
AcDbEntity
  8
0
100
AcDbPoint
 10
59.550000
 20
51.125000
  0
POINT
  5
3b0
100
AcDbEntity
  8
0
100
AcDbPoint
 10
61.375000
 20
50.100000
  0
POINT
  5
3b3
100
AcDbEntity
  8
0
100
AcDbPoint
 10
62.800000
 20
51.950000
  0
POINT
  5
3b6
100
AcDbEntity
  8
0
100
AcDbPoint
 10
63.425000
 20
54.200000
  0
POINT
  5
3b9
100
AcDbEntity
  8
0
100
AcDbPoint
 10
66.100000
 20
52.550000
  0
POINT
  5
3bc
100
AcDbEntity
  8
0
100
AcDbPoint
 10
65.275000
 20
51.325000
  0
POINT
  5
3bf
100
AcDbEntity
  8
0
100
AcDbPoint
 10
65.050000
 20
53.775000
  0
POINT
  5
3c2
100
AcDbEntity
  8
0
100
AcDbPoint
 10
62.200000
 20
53.600000
  0
POINT
  5
3c5
100
AcDbEntity
  8
0
100
AcDbPoint
 10
60.975000
 20
51.725000
  0
POINT
  5
3c8
100
AcDbEntity
  8
0
100
AcDbPoint
 10
63.625000
 20
52.350000
  0
POINT
  5
3cb
100
AcDbEntity
  8
0
100
AcDbPoint
 10
67.100000
 20
54.400000
  0
POINT
  5
3ce
100
AcDbEntity
  8
0
100
AcDbPoint
 10
67.525000
 20
50.500000
  0
POINT
  5
3d1
100
AcDbEntity
  8
0
100
AcDbPoint
 10
65.275000
 20
48.650000
  0
POINT
  5
3d4
100
AcDbEntity
  8
0
100
AcDbPoint
 10
63.225000
 20
50.925000
  0
POINT
  5
3d7
100
AcDbEntity
  8
0
100
AcDbPoint
 10
62.625000
 20
49.675000
  0
POINT
  5
3da
100
AcDbEntity
  8
0
100
AcDbPoint
 10
60.350000
 20
49.275000
  0
POINT
  5
3dd
100
AcDbEntity
  8
0
100
AcDbPoint
 10
59.325000
 20
48.050000
  0
POINT
  5
3e0
100
AcDbEntity
  8
0
100
AcDbPoint
 10
60.150000
 20
46.200000
  0
POINT
  5
3e3
100
AcDbEntity
  8
0
100
AcDbPoint
 10
59.325000
 20
45.775000
  0
POINT
  5
3e6
100
AcDbEntity
  8
0
100
AcDbPoint
 10
61.575000
 20
48.050000
  0
POINT
  5
3e9
100
AcDbEntity
  8
0
100
AcDbPoint
 10
63.850000
 20
48.875000
  0
POINT
  5
3ec
100
AcDbEntity
  8
0
100
AcDbPoint
 10
65.500000
 20
50.100000
  0
POINT
  5
3ef
100
AcDbEntity
  8
0
100
AcDbPoint
 10
66.500000
 20
50.300000
  0
POINT
  5
3f2
100
AcDbEntity
  8
0
100
AcDbPoint
 10
67.725000
 20
52.550000
  0
POINT
  5
3f5
100
AcDbEntity
  8
0
100
AcDbPoint
 10
67.725000
 20
48.450000
  0
POINT
  5
3f8
100
AcDbEntity
  8
0
100
AcDbPoint
 10
64.875000
 20
47.850000
  0
POINT
  5
3fb
100
AcDbEntity
  8
0
100
AcDbPoint
 10
63.225000
 20
47.850000
  0
POINT
  5
3fe
100
AcDbEntity
  8
0
100
AcDbPoint
 10
62.400000
 20
46.400000
  0
POINT
  5
401
100
AcDbEntity
  8
0
100
AcDbPoint
 10
61.375000
 20
45.575000
  0
POINT
  5
404
100
AcDbEntity
  8
0
100
AcDbPoint
 10
63.425000
 20
45.175000
  0
POINT
  5
407
100
AcDbEntity
  8
0
100
AcDbPoint
 10
63.850000
 20
46.625000
  0
POINT
  5
40a
100
AcDbEntity
  8
0
100
AcDbPoint
 10
66.725000
 20
45.775000
  0
POINT
  5
40d
100
AcDbEntity
  8
0
100
AcDbPoint
 10
65.500000
 20
45.775000
  0
POINT
  5
410
100
AcDbEntity
  8
0
100
AcDbPoint
 10
66.100000
 20
47.025000
  0
POINT
  5
413
100
AcDbEntity
  8
0
100
AcDbPoint
 10
67.100000
 20
46.825000
  0
POINT
  5
416
100
AcDbEntity
  8
0
100
AcDbPoint
 10
68.550000
 20
45.575000
  0
POINT
  5
419
100
AcDbEntity
  8
0
100
AcDbPoint
 10
68.350000
 20
50.100000
  0
POINT
  5
41c
100
AcDbEntity
  8
0
100
AcDbPoint
 10
66.900000
 20
51.525000
  0
POINT
  5
41f
100
AcDbEntity
  8
0
100
AcDbPoint
 10
66.725000
 20
53.375000
  0
POINT
  5
422
100
AcDbEntity
  8
0
100
AcDbPoint
 10
65.050000
 20
52.750000
  0
POINT
  5
425
100
AcDbEntity
  8
0
100
AcDbPoint
 10
63.850000
 20
53.375000
  0
POINT
  5
428
100
AcDbEntity
  8
0
100
AcDbPoint
 10
60.550000
 20
54.200000
  0
POINT
  5
42b
100
AcDbEntity
  8
0
100
AcDbPoint
 10
63.850000
 20
55.000000
  0
POINT
  5
42e
100
AcDbEntity
  8
0
100
AcDbPoint
 10
65.675000
 20
54.825000
  0
POINT
  5
431
100
AcDbEntity
  8
0
100
AcDbPoint
 10
60.775000
 20
47.425000
  0
POINT
  5
434
100
AcDbEntity
  8
0
100
AcDbPoint
 10
64.450000
 20
45.575000
  0
POINT
  5
437
100
AcDbEntity
  8
0
100
AcDbPoint
 10
66.275000
 20
48.875000
  0
POINT
  5
43a
100
AcDbEntity
  8
0
100
AcDbPoint
 10
64.050000
 20
50.300000
  0
POINT
  5
43d
100
AcDbEntity
  8
0
100
AcDbPoint
 10
63.225000
 20
52.350000
  0
POINT
  5
440
100
AcDbEntity
  8
0
100
AcDbPoint
 10
67.725000
 20
54.200000
  0
POINT
  5
443
100
AcDbEntity
  8
0
100
AcDbPoint
 10
60.350000
 20
50.925000
  0
POINT
  5
446
100
AcDbEntity
  8
0
100
AcDbPoint
 10
59.325000
 20
52.750000
  0
POINT
  5
449
100
AcDbEntity
  8
0
100
AcDbPoint
 10
62.400000
 20
48.650000
  0
POINT
  5
44c
100
AcDbEntity
  8
0
100
AcDbPoint
 10
72.975000
 20
46.925000
  0
POINT
  5
44f
100
AcDbEntity
  8
0
100
AcDbPoint
 10
70.750000
 20
48.200000
  0
POINT
  5
452
100
AcDbEntity
  8
0
100
AcDbPoint
 10
72.350000
 20
50.425000
  0
MTEXT
  5
455
100
AcDbEntity
  8
0
100
AcDbMText
 10
84.300000
 20
21.975000
 40
1.856250
 41
8.910000
 71
     1
 72
     5
  1
\fＭＳ 明朝|b0|i0|c128|p17;\T1.4384;コア
 44
1.191591
 73
     1
  7
BIGFONT
  0
LINE
  5
458
100
AcDbEntity
  8
0
370
    40
100
AcDbLine
 10
57.825000
 20
180.050000
 11
57.825000
 21
176.975000
  0
LINE
  5
45b
100
AcDbEntity
  8
0
370
    40
100
AcDbLine
 10
59.475000
 20
181.075000
 11
59.475000
 21
181.700000
  0
LINE
  5
45e
100
AcDbEntity
  8
0
370
    40
100
AcDbLine
 10
59.900000
 20
181.075000
 11
59.900000
 21
181.700000
  0
LINE
  5
461
100
AcDbEntity
  8
0
370
    40
100
AcDbLine
 10
60.275000
 20
181.075000
 11
60.275000
 21
181.700000
  0
LINE
  5
464
100
AcDbEntity
  8
0
370
    60
100
AcDbLine
 10
61.325000
 20
178.625000
 11
63.775000
 21
178.625000
  0
LINE
  5
467
100
AcDbEntity
  8
0
370
    20
100
AcDbLine
 10
63.775000
 20
179.250000
 11
61.325000
 21
179.250000
  0
LINE
  5
46a
100
AcDbEntity
  8
0
370
    20
100
AcDbLine
 10
61.325000
 20
178.000000
 11
63.775000
 21
178.000000
  0
LINE
  5
46d
100
AcDbEntity
  8
0
370
    20
100
AcDbLine
 10
64.800000
 20
179.425000
 11
65.850000
 21
179.425000
  0
LINE
  5
470
100
AcDbEntity
  8
0
370
    20
100
AcDbLine
 10
65.850000
 20
179.425000
 11
65.850000
 21
174.925000
  0
MTEXT
  5
473
100
AcDbEntity
  8
0
100
AcDbMText
 10
53.975000
 20
237.950000
 40
1.856250
 41
22.275000
 71
     1
 72
     5
  1
\fＭＳ 明朝|b0|i0|c128|p17;\H1.8563;\T1.0506;三脚やぐ\T1.6510;ら
 44
1.143328
 73
     1
  7
BIGFONT
  0
LWPOLYLINE
  5
476
100
AcDbEntity
  8
0
100
AcDbPolyline
 90
     4
 70
     1
 43
0.200000
 10
77.725000
 20
234.575000
 10
77.725000
 20
234.175000
 10
78.350000
 20
234.175000
 10
78.350000
 20
234.575000
  0
MTEXT
  5
481
100
AcDbEntity
  8
0
100
AcDbMText
 10
60.325000
 20
203.850000
 40
1.856250
 41
13.365000
 71
     1
 72
     5
  1
\fＭＳ 明朝|b0|i0|c128|p17;\T1.4384;巻上機
 44
1.199166
 73
     1
  7
BIGFONT
  0
LWPOLYLINE
  5
484
100
AcDbEntity
  8
0
100
AcDbPolyline
 90
     3
 70
     0
 43
0.200000
 10
50.675000
 20
169.600000
 10
59.900000
 20
178.200000
 10
58.250000
 20
177.175000
  0
LWPOLYLINE
  5
48d
100
AcDbEntity
  8
0
100
AcDbPolyline
 90
     3
 70
     0
 43
0.200000
 10
57.225000
 20
169.600000
 10
66.850000
 20
177.800000
 10
64.800000
 20
176.775000
  0
LWPOLYLINE
  5
496
100
AcDbEntity
  8
0
100
AcDbPolyline
 90
     3
 70
     0
 43
0.200000
 10
70.550000
 20
236.000000
 10
73.400000
 20
234.975000
 10
72.175000
 20
236.000000
  0
LWPOLYLINE
  5
49f
100
AcDbEntity
  8
0
100
AcDbPolyline
 90
     3
 70
     0
 43
0.200000
 10
82.000000
 20
238.250000
 10
78.125000
 20
237.450000
 10
79.775000
 20
238.250000
  0
LWPOLYLINE
  5
4a8
100
AcDbEntity
  8
0
100
AcDbPolyline
 90
     3
 70
     0
 43
0.200000
 10
82.450000
 20
233.350000
 10
78.525000
 20
232.750000
 10
80.400000
 20
233.525000
  0
LWPOLYLINE
  5
4b1
100
AcDbEntity
  8
0
100
AcDbPolyline
 90
     3
 70
     0
 43
0.200000
 10
82.850000
 20
201.975000
 10
78.350000
 20
200.350000
 10
79.775000
 20
201.350000
  0
LWPOLYLINE
  5
4ba
100
AcDbEntity
  8
0
100
AcDbPolyline
 90
     3
 70
     0
 43
0.200000
 10
85.450000
 20
195.500000
 10
80.925000
 20
196.625000
 10
82.200000
 20
195.775000
  0
LWPOLYLINE
  5
4c3
100
AcDbEntity
  8
0
100
AcDbPolyline
 90
     3
 70
     0
 43
0.200000
 10
82.025000
 20
177.500000
 10
78.750000
 20
174.300000
 10
79.350000
 20
174.925000
  0
LWPOLYLINE
  5
4cc
100
AcDbEntity
  8
0
100
AcDbPolyline
 90
     3
 70
     0
 43
0.200000
 10
79.750000
 20
176.025000
 10
78.750000
 20
174.300000
 10
80.475000
 20
175.300000
  0
LWPOLYLINE
  5
4d5
100
AcDbEntity
  8
0
100
AcDbPolyline
 90
     3
 70
     0
 43
0.200000
 10
83.300000
 20
131.200000
 10
79.200000
 20
129.750000
 10
80.625000
 20
130.775000
  0
LWPOLYLINE
  5
4de
100
AcDbEntity
  8
0
100
AcDbPolyline
 90
     3
 70
     0
 43
0.200000
 10
84.100000
 20
51.225000
 10
78.075000
 20
50.575000
 10
80.925000
 20
51.525000
  0
LWPOLYLINE
  5
4e7
100
AcDbEntity
  8
0
100
AcDbPolyline
 90
     3
 70
     0
 43
0.200000
 10
83.450000
 20
26.300000
 10
79.325000
 20
25.050000
 10
81.550000
 20
26.625000
  0
LWPOLYLINE
  5
4f0
100
AcDbEntity
  8
0
100
AcDbPolyline
 90
     3
 70
     0
 43
0.200000
 10
83.750000
 20
19.950000
 10
77.425000
 20
17.750000
 10
79.000000
 20
19.325000
  0
LWPOLYLINE
  5
4f9
100
AcDbEntity
  8
0
100
AcDbPolyline
 90
     3
 70
     0
 43
0.200000
 10
83.225000
 20
14.350000
 10
78.775000
 20
15.625000
 10
81.325000
 20
15.625000
  0
MTEXT
  5
502
100
AcDbEntity
  8
0
100
AcDbMText
 10
65.600000
 20
190.700000
 40
1.856250
 41
9.475000
 71
     1
 72
     5
  1
\fＭＳ 明朝|b0|i0|c128|p17;\H1.05;\T1.8772;変速装\T2.7995;置\H1.8563;\C255;\T0.9100;\P\H1.05;\C7;\T1.8772;操縦装\T2.7995;置
 44
0.931499
 73
     1
  7
BIGFONT
  0
LINE
  5
505
100
AcDbEntity
  8
0
370
    20
100
AcDbLine
 10
37.150000
 20
173.500000
 11
37.150000
 21
124.400000
  0
LINE
  5
508
100
AcDbEntity
  8
0
370
    20
100
AcDbLine
 10
38.175000
 20
173.500000
 11
38.175000
 21
124.400000
  0
LINE
  5
50b
100
AcDbEntity
  8
0
370
    20
100
AcDbLine
 10
37.150000
 20
173.500000
 11
38.175000
 21
173.500000
  0
LINE
  5
50e
100
AcDbEntity
  8
0
370
    20
100
AcDbLine
 10
37.150000
 20
124.400000
 11
38.175000
 21
124.400000
  0
LINE
  5
511
100
AcDbEntity
  8
0
370
    20
100
AcDbLine
 10
60.700000
 20
173.900000
 11
60.700000
 21
124.400000
  0
LINE
  5
514
100
AcDbEntity
  8
0
370
    20
100
AcDbLine
 10
61.725000
 20
173.900000
 11
61.725000
 21
124.400000
  0
LINE
  5
517
100
AcDbEntity
  8
0
370
    20
100
AcDbLine
 10
60.700000
 20
173.900000
 11
61.725000
 21
173.900000
  0
LINE
  5
51a
100
AcDbEntity
  8
0
370
    20
100
AcDbLine
 10
60.700000
 20
124.400000
 11
61.725000
 21
124.400000
  0
HATCH
  5
51d
330
F6
100
AcDbEntity
  8
0
100
AcDbHatch
 10
0.0
 20
0.0
 30
0.0
210
0.0
220
0.0
230
1.0
  2
SOLID
 70
     1
 71
     0
 91
     1
 92
     7
 72
     0
 73
     1
 93
    10
 10
38.575000
 20
170.625000
 10
38.575000
 20
170.425000
 10
37.950000
 20
169.800000
 10
37.150000
 20
169.800000
 10
36.525000
 20
170.425000
 10
36.525000
 20
171.225000
 10
37.150000
 20
171.850000
 10
37.950000
 20
171.850000
 10
38.575000
 20
171.225000
 10
38.575000
 20
170.825000
 97
     1
330
520
 75
     0
 76
     1
 47
0.651316
 98
     1
 10
0.0
 20
0.0
  0
LWPOLYLINE
  5
520
330
F6
100
AcDbEntity
  8
0
100
AcDbPolyline
 90
    10
 70
     1
 43
0.200000
 10
38.575000
 20
170.625000
 10
38.575000
 20
170.425000
 10
37.950000
 20
169.800000
 10
37.150000
 20
169.800000
 10
36.525000
 20
170.425000
 10
36.525000
 20
171.225000
 10
37.150000
 20
171.850000
 10
37.950000
 20
171.850000
 10
38.575000
 20
171.225000
 10
38.575000
 20
170.825000
  0
CIRCLE
  5
537
100
AcDbEntity
  8
0
370
    20
100
AcDbCircle
 10
37.525000
 20
170.825000
 40
1.025000
  0
HATCH
  5
53a
330
F6
100
AcDbEntity
  8
0
100
AcDbHatch
 10
0.0
 20
0.0
 30
0.0
210
0.0
220
0.0
230
1.0
  2
SOLID
 70
     1
 71
     0
 91
     1
 92
     7
 72
     0
 73
     1
 93
    10
 10
73.625000
 20
171.050000
 10
73.625000
 20
170.825000
 10
73.025000
 20
170.200000
 10
72.175000
 20
170.200000
 10
71.575000
 20
170.825000
 10
71.575000
 20
171.650000
 10
72.175000
 20
172.275000
 10
73.025000
 20
172.275000
 10
73.625000
 20
171.650000
 10
73.625000
 20
171.225000
 97
     1
330
53d
 75
     0
 76
     1
 47
0.651316
 98
     1
 10
0.0
 20
0.0
  0
LWPOLYLINE
  5
53d
330
F6
100
AcDbEntity
  8
0
100
AcDbPolyline
 90
    10
 70
     1
 43
0.200000
 10
73.625000
 20
171.050000
 10
73.625000
 20
170.825000
 10
73.025000
 20
170.200000
 10
72.175000
 20
170.200000
 10
71.575000
 20
170.825000
 10
71.575000
 20
171.650000
 10
72.175000
 20
172.275000
 10
73.025000
 20
172.275000
 10
73.625000
 20
171.650000
 10
73.625000
 20
171.225000
  0
ELLIPSE
  5
554
100
AcDbEntity
  8
0
370
    20
100
AcDbEllipse
 10
72.575000
 20
171.225000
 30
0.000000
 11
1.025000
 21
-0.000000000000000
 31
0.000000
210
0.000000
220
0.000000
230
1.000000
 40
0.975610
 41
0.000000
 42
6.283185
  0
HATCH
  5
557
330
F6
100
AcDbEntity
  8
0
100
AcDbHatch
 10
0.0
 20
0.0
 30
0.0
210
0.0
220
0.0
230
1.0
  2
SOLID
 70
     1
 71
     0
 91
     1
 92
     7
 72
     0
 73
     1
 93
    10
 10
83.250000
 20
171.050000
 10
83.250000
 20
170.825000
 10
82.625000
 20
170.200000
 10
81.825000
 20
170.200000
 10
81.200000
 20
170.825000
 10
81.200000
 20
171.650000
 10
81.825000
 20
172.275000
 10
82.625000
 20
172.275000
 10
83.250000
 20
171.650000
 10
83.250000
 20
171.225000
 97
     1
330
55a
 75
     0
 76
     1
 47
0.651316
 98
     1
 10
0.0
 20
0.0
  0
LWPOLYLINE
  5
55a
330
F6
100
AcDbEntity
  8
0
100
AcDbPolyline
 90
    10
 70
     1
 43
0.200000
 10
83.250000
 20
171.050000
 10
83.250000
 20
170.825000
 10
82.625000
 20
170.200000
 10
81.825000
 20
170.200000
 10
81.200000
 20
170.825000
 10
81.200000
 20
171.650000
 10
81.825000
 20
172.275000
 10
82.625000
 20
172.275000
 10
83.250000
 20
171.650000
 10
83.250000
 20
171.225000
  0
ELLIPSE
  5
571
100
AcDbEntity
  8
0
370
    20
100
AcDbEllipse
 10
82.225000
 20
171.225000
 30
0.000000
 11
1.025000
 21
-0.000000000000000
 31
0.000000
210
0.000000
220
0.000000
230
1.000000
 40
0.975610
 41
0.000000
 42
6.283185
  0
LINE
  5
574
100
AcDbEntity
  8
0
370
    20
100
AcDbLine
 10
76.675000
 20
29.375000
 11
76.675000
 21
100.175000
  0
LWPOLYLINE
  5
577
100
AcDbEntity
  8
0
100
AcDbPolyline
 90
     3
 70
     0
 43
0.200000
 10
76.675000
 20
102.675000
 10
76.675000
 20
102.875000
 10
76.675000
 20
124.000000
  0
LINE
  5
580
100
AcDbEntity
  8
0
370
    20
100
AcDbLine
 10
76.675000
 20
125.050000
 11
76.675000
 21
139.050000
  0
LINE
  5
583
100
AcDbEntity
  8
0
370
    20
100
AcDbLine
 10
84.075000
 20
173.075000
 11
84.075000
 21
171.650000
  0
LINE
  5
586
100
AcDbEntity
  8
0
370
    20
100
AcDbLine
 10
41.250000
 20
171.650000
 11
41.250000
 21
173.075000
  0
LINE
  5
589
100
AcDbEntity
  8
0
370
    20
100
AcDbLine
 10
76.675000
 20
173.075000
 11
77.300000
 21
173.075000
  0
LINE
  5
58c
100
AcDbEntity
  8
0
370
    20
100
AcDbLine
 10
41.250000
 20
173.075000
 11
54.350000
 21
173.075000
  0
LINE
  5
58f
100
AcDbEntity
  8
0
370
    20
100
AcDbLine
 10
73.200000
 20
173.075000
 11
76.675000
 21
173.075000
  0
LINE
  5
592
100
AcDbEntity
  8
0
370
    20
100
AcDbLine
 10
77.300000
 20
173.075000
 11
82.000000
 21
173.075000
  0
LINE
  5
595
100
AcDbEntity
  8
0
370
    20
100
AcDbLine
 10
83.050000
 20
173.075000
 11
84.075000
 21
173.075000
  0
LINE
  5
598
100
AcDbEntity
  8
0
370
    20
100
AcDbLine
 10
82.000000
 20
174.100000
 11
83.050000
 21
174.100000
  0
HATCH
  5
59b
330
F6
100
AcDbEntity
  8
0
100
AcDbHatch
 10
0.0
 20
0.0
 30
0.0
210
0.0
220
0.0
230
1.0
  2
SOLID
 70
     1
 71
     0
 91
     1
 92
     7
 72
     0
 73
     1
 93
    10
 10
48.200000
 20
172.275000
 10
48.200000
 20
172.050000
 10
47.575000
 20
171.425000
 10
46.775000
 20
171.425000
 10
46.150000
 20
172.050000
 10
46.150000
 20
172.875000
 10
46.775000
 20
173.500000
 10
47.575000
 20
173.500000
 10
48.200000
 20
172.875000
 10
48.200000
 20
172.475000
 97
     1
330
59e
 75
     0
 76
     1
 47
0.651316
 98
     1
 10
0.0
 20
0.0
  0
LWPOLYLINE
  5
59e
330
F6
100
AcDbEntity
  8
0
100
AcDbPolyline
 90
    10
 70
     1
 43
0.200000
 10
48.200000
 20
172.275000
 10
48.200000
 20
172.050000
 10
47.575000
 20
171.425000
 10
46.775000
 20
171.425000
 10
46.150000
 20
172.050000
 10
46.150000
 20
172.875000
 10
46.775000
 20
173.500000
 10
47.575000
 20
173.500000
 10
48.200000
 20
172.875000
 10
48.200000
 20
172.475000
  0
CIRCLE
  5
5b5
100
AcDbEntity
  8
0
370
    20
100
AcDbCircle
 10
47.175000
 20
172.475000
 40
1.025000
  0
LINE
  5
5b8
100
AcDbEntity
  8
0
370
    20
100
AcDbLine
 10
57.825000
 20
174.925000
 11
57.825000
 21
188.850000
  0
LINE
  5
5bb
100
AcDbEntity
  8
0
370
    20
100
AcDbLine
 10
47.800000
 20
188.850000
 11
47.800000
 21
174.925000
  0
LINE
  5
5be
100
AcDbEntity
  8
0
370
    20
100
AcDbLine
 10
48.800000
 20
174.925000
 11
57.825000
 21
174.925000
  0
LINE
  5
5c1
100
AcDbEntity
  8
0
370
    20
100
AcDbLine
 10
47.800000
 20
188.850000
 11
53.725000
 21
188.850000
  0
LINE
  5
5c4
100
AcDbEntity
  8
0
370
    20
100
AcDbLine
 10
54.750000
 20
188.850000
 11
57.825000
 21
188.850000
  0
CIRCLE
  5
5c7
100
AcDbEntity
  8
0
370
    40
100
AcDbCircle
 10
54.550000
 20
191.925000
 40
0.625000
  0
CIRCLE
  5
5ca
100
AcDbEntity
  8
0
370
    40
100
AcDbCircle
 10
61.125000
 20
207.300000
 40
0.600000
  0
ELLIPSE
  5
5cd
100
AcDbEntity
  8
0
370
    40
100
AcDbEllipse
 10
68.925000
 20
225.350000
 30
0.000000
 11
0.000000000000000
 21
0.625000
 31
0.000000
210
0.000000
220
0.000000
230
1.000000
 40
0.960000
 41
0.000000
 42
6.283185
  0
MTEXT
  5
5d0
100
AcDbEntity
  8
0
100
AcDbMText
 10
93.575000
 20
153.625000
 40
1.856250
 41
22.275000
 71
     1
 72
     5
  1
\fＭＳ 明朝|b0|i0|c128|p17;\T1.4384;単管パイプ
 44
1.199166
 73
     1
  7
BIGFONT
  0
MTEXT
  5
5d3
100
AcDbEntity
  8
0
100
AcDbMText
 10
97.775000
 20
144.325000
 40
1.856250
 41
17.820000
 71
     1
 72
     5
  1
\fＭＳ 明朝|b0|i0|c128|p17;\T1.4384;クランプ
 44
1.199166
 73
     1
  7
BIGFONT
  0
MTEXT
  5
5d6
100
AcDbEntity
  8
0
100
AcDbMText
 10
83.300000
 20
178.575000
 40
1.856250
 41
40.095000
 71
     1
 72
     5
  1
\fＭＳ 明朝|b0|i0|c128|p17;\T1.4384;足場板・単管パイプ
 44
1.191591
 73
     1
  7
BIGFONT
  0
POINT
  5
5d9
100
AcDbEntity
  8
0
100
AcDbPoint
 10
57.675000
 20
54.600000
  0
POINT
  5
5dc
100
AcDbEntity
  8
0
100
AcDbPoint
 10
58.700000
 20
54.000000
  0
POINT
  5
5df
100
AcDbEntity
  8
0
100
AcDbPoint
 10
60.975000
 20
52.350000
  0
POINT
  5
5e2
100
AcDbEntity
  8
0
100
AcDbPoint
 10
61.375000
 20
53.175000
  0
LWPOLYLINE
  5
5e5
100
AcDbEntity
  8
0
100
AcDbPolyline
 90
     3
 70
     0
 43
0.200000
 10
88.800000
 20
175.775000
 10
87.550000
 20
171.850000
 10
87.775000
 20
174.125000
  0
LINE
  5
5ee
100
AcDbEntity
  8
0
370
    20
100
AcDbLine
 10
75.200000
 20
13.625000
 11
76.475000
 21
13.625000
  0
LINE
  5
5f1
100
AcDbEntity
  8
0
370
    20
100
AcDbLine
 10
75.900000
 20
13.525000
 11
75.900000
 21
13.725000
  0
LINE
  5
5f4
100
AcDbEntity
  8
0
370
    20
100
AcDbLine
 10
75.900000
 20
13.875000
 11
75.900000
 21
21.125000
  0
LINE
  5
5f7
100
AcDbEntity
  8
0
370
    20
100
AcDbLine
 10
75.825000
 20
21.125000
 11
76.050000
 21
21.125000
  0
LINE
  5
5fa
100
AcDbEntity
  8
0
370
    20
100
AcDbLine
 10
76.375000
 20
21.125000
 11
78.050000
 21
21.125000
  0
LINE
  5
5fd
100
AcDbEntity
  8
0
370
    20
100
AcDbLine
 10
78.250000
 20
21.125000
 11
78.350000
 21
21.125000
  0
LINE
  5
600
100
AcDbEntity
  8
0
370
    20
100
AcDbLine
 10
77.975000
 20
21.200000
 11
77.975000
 21
13.600000
  0
LINE
  5
603
100
AcDbEntity
  8
0
370
    20
100
AcDbLine
 10
78.000000
 20
13.625000
 11
79.275000
 21
13.625000
  0
LINE
  5
606
100
AcDbEntity
  8
0
370
    20
100
AcDbLine
 10
77.725000
 20
99.625000
 11
77.725000
 21
29.200000
  0
LINE
  5
609
100
AcDbEntity
  8
0
370
    20
100
AcDbLine
 10
77.725000
 20
101.000000
 11
77.725000
 21
102.050000
  0
LINE
  5
60c
100
AcDbEntity
  8
0
370
    20
100
AcDbLine
 10
77.725000
 20
125.050000
 11
77.725000
 21
139.050000
  0
POINT
  5
60f
100
AcDbEntity
  8
0
100
AcDbPoint
 10
57.900000
 20
53.775000
  0
POINT
  5
612
100
AcDbEntity
  8
0
100
AcDbPoint
 10
58.300000
 20
51.725000
  0
POINT
  5
615
100
AcDbEntity
  8
0
100
AcDbPoint
 10
58.300000
 20
49.275000
  0
POINT
  5
618
100
AcDbEntity
  8
0
100
AcDbPoint
 10
57.050000
 20
52.950000
  0
POINT
  5
61b
100
AcDbEntity
  8
0
100
AcDbPoint
 10
56.250000
 20
54.600000
  0
POINT
  5
61e
100
AcDbEntity
  8
0
100
AcDbPoint
 10
57.900000
 20
50.725000
  0
POINT
  5
621
100
AcDbEntity
  8
0
100
AcDbPoint
 10
58.925000
 20
47.425000
  0
POINT
  5
624
100
AcDbEntity
  8
0
100
AcDbPoint
 10
60.550000
 20
48.650000
  0
LINE
  5
627
100
AcDbEntity
  8
0
370
    20
100
AcDbLine
 10
78.750000
 20
79.850000
 11
79.100000
 21
79.900000
  0
LWPOLYLINE
  5
62a
100
AcDbEntity
  8
0
100
AcDbPolyline
 90
     3
 70
     0
 43
0.200000
 10
79.325000
 20
79.925000
 10
82.700000
 20
80.250000
 10
114.375000
 20
80.700000
  0
LWPOLYLINE
  5
633
100
AcDbEntity
  8
0
100
AcDbPolyline
 90
     3
 70
     0
 43
0.200000
 10
80.600000
 20
42.800000
 10
87.575000
 20
42.800000
 10
100.950000
 20
43.125000
  0
LINE
  5
63c
100
AcDbEntity
  8
0
370
    20
100
AcDbLine
 10
74.850000
 20
174.925000
 11
74.850000
 21
173.075000
  0
LINE
  5
63f
100
AcDbEntity
  8
0
370
    20
100
AcDbLine
 10
45.750000
 20
173.075000
 11
45.750000
 21
174.925000
  0
LWPOLYLINE
  5
642
100
AcDbEntity
  8
0
100
AcDbPolyline
 90
     4
 70
     1
 43
0.200000
 10
59.900000
 20
206.700000
 10
59.900000
 20
205.675000
 10
91.875000
 20
205.675000
 10
91.875000
 20
206.700000
  0
HATCH
  5
64d
330
F6
100
AcDbEntity
  8
0
100
AcDbHatch
 10
0.0
 20
0.0
 30
0.0
210
0.0
220
0.0
230
1.0
  2
SOLID
 70
     1
 71
     0
 91
     1
 92
     7
 72
     0
 73
     1
 93
    10
 10
62.550000
 20
206.075000
 10
62.550000
 20
205.875000
 10
61.925000
 20
205.250000
 10
61.125000
 20
205.250000
 10
60.500000
 20
205.875000
 10
60.500000
 20
206.700000
 10
61.125000
 20
207.300000
 10
61.925000
 20
207.300000
 10
62.550000
 20
206.700000
 10
62.550000
 20
206.300000
 97
     1
330
650
 75
     0
 76
     1
 47
0.651316
 98
     1
 10
0.0
 20
0.0
  0
LWPOLYLINE
  5
650
330
F6
100
AcDbEntity
  8
0
100
AcDbPolyline
 90
    10
 70
     1
 43
0.200000
 10
62.550000
 20
206.075000
 10
62.550000
 20
205.875000
 10
61.925000
 20
205.250000
 10
61.125000
 20
205.250000
 10
60.500000
 20
205.875000
 10
60.500000
 20
206.700000
 10
61.125000
 20
207.300000
 10
61.925000
 20
207.300000
 10
62.550000
 20
206.700000
 10
62.550000
 20
206.300000
  0
CIRCLE
  5
667
100
AcDbEntity
  8
0
370
    20
100
AcDbCircle
 10
61.525000
 20
206.300000
 40
1.025000
  0
HATCH
  5
66a
330
F6
100
AcDbEntity
  8
0
100
AcDbHatch
 10
0.0
 20
0.0
 30
0.0
210
0.0
220
0.0
230
1.0
  2
SOLID
 70
     1
 71
     0
 91
     1
 92
     7
 72
     0
 73
     1
 93
    10
 10
90.025000
 20
205.875000
 10
90.025000
 20
205.675000
 10
89.400000
 20
205.075000
 10
88.575000
 20
205.075000
 10
87.950000
 20
205.675000
 10
87.950000
 20
206.475000
 10
88.575000
 20
207.100000
 10
89.400000
 20
207.100000
 10
90.025000
 20
206.475000
 10
90.025000
 20
206.075000
 97
     1
330
66d
 75
     0
 76
     1
 47
0.651316
 98
     1
 10
0.0
 20
0.0
  0
LWPOLYLINE
  5
66d
330
F6
100
AcDbEntity
  8
0
100
AcDbPolyline
 90
    10
 70
     1
 43
0.200000
 10
90.025000
 20
205.875000
 10
90.025000
 20
205.675000
 10
89.400000
 20
205.075000
 10
88.575000
 20
205.075000
 10
87.950000
 20
205.675000
 10
87.950000
 20
206.475000
 10
88.575000
 20
207.100000
 10
89.400000
 20
207.100000
 10
90.025000
 20
206.475000
 10
90.025000
 20
206.075000
  0
ELLIPSE
  5
684
100
AcDbEntity
  8
0
370
    20
100
AcDbEllipse
 10
89.000000
 20
206.075000
 30
0.000000
 11
1.025000
 21
-0.000000000000000
 31
0.000000
210
0.000000
220
0.000000
230
1.000000
 40
0.975610
 41
0.000000
 42
6.283185
  0
HATCH
  5
687
330
F6
100
AcDbEntity
  8
0
100
AcDbHatch
 10
0.0
 20
0.0
 30
0.0
210
0.0
220
0.0
230
1.0
  2
SOLID
 70
     1
 71
     0
 91
     1
 92
     7
 72
     0
 73
     1
 93
    10
 10
70.350000
 20
223.925000
 10
70.350000
 20
223.700000
 10
69.725000
 20
223.075000
 10
68.925000
 20
223.075000
 10
68.300000
 20
223.700000
 10
68.300000
 20
224.525000
 10
68.925000
 20
225.150000
 10
69.725000
 20
225.150000
 10
70.350000
 20
224.525000
 10
70.350000
 20
224.125000
 97
     1
330
68a
 75
     0
 76
     1
 47
0.651316
 98
     1
 10
0.0
 20
0.0
  0
LWPOLYLINE
  5
68a
330
F6
100
AcDbEntity
  8
0
100
AcDbPolyline
 90
    10
 70
     1
 43
0.200000
 10
70.350000
 20
223.925000
 10
70.350000
 20
223.700000
 10
69.725000
 20
223.075000
 10
68.925000
 20
223.075000
 10
68.300000
 20
223.700000
 10
68.300000
 20
224.525000
 10
68.925000
 20
225.150000
 10
69.725000
 20
225.150000
 10
70.350000
 20
224.525000
 10
70.350000
 20
224.125000
  0
CIRCLE
  5
6a1
100
AcDbEntity
  8
0
370
    20
100
AcDbCircle
 10
69.300000
 20
224.125000
 40
1.025000
  0
HATCH
  5
6a4
330
F6
100
AcDbEntity
  8
0
100
AcDbHatch
 10
0.0
 20
0.0
 30
0.0
210
0.0
220
0.0
230
1.0
  2
SOLID
 70
     1
 71
     0
 91
     1
 92
     7
 72
     0
 73
     1
 93
    10
 10
84.475000
 20
223.925000
 10
84.475000
 20
223.700000
 10
83.850000
 20
223.075000
 10
83.050000
 20
223.075000
 10
82.450000
 20
223.700000
 10
82.450000
 20
224.525000
 10
83.050000
 20
225.150000
 10
83.850000
 20
225.150000
 10
84.475000
 20
224.525000
 10
84.475000
 20
224.125000
 97
     1
330
6a7
 75
     0
 76
     1
 47
0.651316
 98
     1
 10
0.0
 20
0.0
  0
LWPOLYLINE
  5
6a7
330
F6
100
AcDbEntity
  8
0
100
AcDbPolyline
 90
    10
 70
     1
 43
0.200000
 10
84.475000
 20
223.925000
 10
84.475000
 20
223.700000
 10
83.850000
 20
223.075000
 10
83.050000
 20
223.075000
 10
82.450000
 20
223.700000
 10
82.450000
 20
224.525000
 10
83.050000
 20
225.150000
 10
83.850000
 20
225.150000
 10
84.475000
 20
224.525000
 10
84.475000
 20
224.125000
  0
CIRCLE
  5
6be
100
AcDbEntity
  8
0
370
    20
100
AcDbCircle
 10
83.450000
 20
224.125000
 40
1.025000
  0
LINE
  5
6c1
100
AcDbEntity
  8
0
  6
DOT
 62
     7
370
    60
100
AcDbLine
 10
70.550000
 20
200.975000
 11
71.175000
 21
205.675000
  0
LINE
  5
6c4
100
AcDbEntity
  8
0
370
    20
100
AcDbLine
 10
67.475000
 20
224.525000
 11
67.475000
 21
223.700000
  0
LINE
  5
6c7
100
AcDbEntity
  8
0
370
    20
100
AcDbLine
 10
67.475000
 20
223.700000
 11
85.500000
 21
223.700000
  0
LINE
  5
6ca
100
AcDbEntity
  8
0
370
    20
100
AcDbLine
 10
85.500000
 20
223.700000
 11
85.500000
 21
224.525000
  0
LINE
  5
6cd
100
AcDbEntity
  8
0
370
    20
100
AcDbLine
 10
85.500000
 20
224.525000
 11
67.475000
 21
224.525000
  0
LINE
  5
6d0
100
AcDbEntity
  8
0
  6
DOT
 62
     7
370
    60
100
AcDbLine
 10
71.350000
 20
206.700000
 11
74.025000
 21
223.700000
  0
LINE
  5
6d3
100
AcDbEntity
  8
0
  6
DOT
 62
     7
370
    60
100
AcDbLine
 10
74.250000
 20
224.525000
 11
76.500000
 21
237.025000
  0
LINE
  5
6d6
100
AcDbEntity
  8
0
370
    20
100
AcDbLine
 10
45.750000
 20
174.925000
 11
47.800000
 21
174.925000
  0
LINE
  5
6d9
100
AcDbEntity
  8
0
370
    20
100
AcDbLine
 10
48.800000
 20
174.925000
 11
74.850000
 21
174.925000
  0
LINE
  5
6dc
100
AcDbEntity
  8
0
370
    20
100
AcDbLine
 10
73.200000
 20
173.075000
 11
74.850000
 21
173.075000
  0
LINE
  5
6df
100
AcDbEntity
  8
0
370
    20
100
AcDbLine
 10
45.750000
 20
173.075000
 11
54.350000
 21
173.075000
  0
POINT
  5
6e2
100
AcDbEntity
  8
0
100
AcDbPoint
 10
73.475000
 20
54.200000
  0
POINT
  5
6e5
100
AcDbEntity
  8
0
100
AcDbPoint
 10
74.900000
 20
54.200000
  0
POINT
  5
6e8
100
AcDbEntity
  8
0
100
AcDbPoint
 10
82.175000
 20
52.950000
  0
POINT
  5
6eb
100
AcDbEntity
  8
0
100
AcDbPoint
 10
80.800000
 20
42.825000
  0
POINT
  5
6ee
100
AcDbEntity
  8
0
100
AcDbPoint
 10
83.325000
 20
43.150000
  0
POINT
  5
6f1
100
AcDbEntity
  8
0
100
AcDbPoint
 10
78.800000
 20
54.200000
  0
POINT
  5
6f4
100
AcDbEntity
  8
0
100
AcDbPoint
 10
80.225000
 20
54.600000
  0
POINT
  5
6f7
100
AcDbEntity
  8
0
100
AcDbPoint
 10
92.950000
 20
54.850000
  0
POINT
  5
6fa
100
AcDbEntity
  8
0
100
AcDbPoint
 10
79.825000
 20
53.375000
  0
POINT
  5
6fd
100
AcDbEntity
  8
0
100
AcDbPoint
 10
81.750000
 20
43.450000
  0
POINT
  5
700
100
AcDbEntity
  8
0
100
AcDbPoint
 10
77.625000
 20
42.825000
  0
POINT
  5
703
100
AcDbEntity
  8
0
100
AcDbPoint
 10
92.000000
 20
46.600000
  0
POINT
  5
706
100
AcDbEntity
  8
0
100
AcDbPoint
 10
91.700000
 20
44.400000
  0
POINT
  5
709
100
AcDbEntity
  8
0
100
AcDbPoint
 10
88.825000
 20
44.400000
  0
POINT
  5
70c
100
AcDbEntity
  8
0
100
AcDbPoint
 10
86.625000
 20
43.750000
  0
POINT
  5
70f
100
AcDbEntity
  8
0
100
AcDbPoint
 10
82.800000
 20
43.750000
  0
POINT
  5
712
100
AcDbEntity
  8
0
100
AcDbPoint
 10
81.550000
 20
44.700000
  0
POINT
  5
715
100
AcDbEntity
  8
0
100
AcDbPoint
 10
85.025000
 20
45.350000
  0
POINT
  5
718
100
AcDbEntity
  8
0
100
AcDbPoint
 10
86.925000
 20
45.975000
  0
POINT
  5
71b
100
AcDbEntity
  8
0
100
AcDbPoint
 10
87.575000
 20
48.525000
  0
POINT
  5
71e
100
AcDbEntity
  8
0
100
AcDbPoint
 10
89.800000
 20
47.250000
  0
POINT
  5
721
100
AcDbEntity
  8
0
100
AcDbPoint
 10
85.675000
 20
48.525000
  0
POINT
  5
724
100
AcDbEntity
  8
0
100
AcDbPoint
 10
82.500000
 20
48.525000
  0
POINT
  5
727
100
AcDbEntity
  8
0
100
AcDbPoint
 10
82.500000
 20
46.925000
  0
POINT
  5
72a
100
AcDbEntity
  8
0
100
AcDbPoint
 10
82.175000
 20
49.775000
  0
POINT
  5
72d
100
AcDbEntity
  8
0
100
AcDbPoint
 10
83.750000
 20
47.575000
  0
POINT
  5
730
100
AcDbEntity
  8
0
100
AcDbPoint
 10
83.450000
 20
45.350000
  0
POINT
  5
733
100
AcDbEntity
  8
0
100
AcDbPoint
 10
90.750000
 20
49.150000
  0
POINT
  5
736
100
AcDbEntity
  8
0
100
AcDbPoint
 10
92.650000
 20
48.825000
  0
LINE
  5
739
100
AcDbEntity
  8
0
370
    20
100
AcDbLine
 10
111.325000
 20
173.075000
 11
112.550000
 21
173.075000
  0
LINE
  5
73c
100
AcDbEntity
  8
0
370
    20
100
AcDbLine
 10
112.550000
 20
173.075000
 11
112.550000
 21
159.975000
  0
LINE
  5
73f
100
AcDbEntity
  8
0
370
    20
100
AcDbLine
 10
112.600000
 20
148.025000
 11
112.600000
 21
159.975000
  0
LINE
  5
742
100
AcDbEntity
  8
0
370
    20
100
AcDbLine
 10
112.600000
 20
148.425000
 11
112.550000
 21
125.625000
  0
LINE
  5
745
100
AcDbEntity
  8
0
370
    20
100
AcDbLine
 10
111.400000
 20
173.050000
 11
111.400000
 21
125.600000
  0
LINE
  5
748
100
AcDbEntity
  8
0
370
    20
100
AcDbLine
 10
91.675000
 20
173.900000
 11
92.675000
 21
173.900000
  0
LINE
  5
74b
100
AcDbEntity
  8
0
370
    20
100
AcDbLine
 10
93.175000
 20
42.975000
 11
94.750000
 21
42.975000
  0
LINE
  5
74e
100
AcDbEntity
  8
0
370
    20
100
AcDbLine
 10
91.650000
 20
159.975000
 11
91.675000
 21
173.900000
  0
LINE
  5
751
100
AcDbEntity
  8
0
370
    20
100
AcDbLine
 10
92.725000
 20
160.025000
 11
92.675000
 21
173.900000
  0
LINE
  5
754
100
AcDbEntity
  8
0
370
    20
100
AcDbLine
 10
91.675000
 20
160.025000
 11
91.675000
 21
124.800000
  0
LINE
  5
757
100
AcDbEntity
  8
0
370
    20
100
AcDbLine
 10
92.725000
 20
147.200000
 11
92.675000
 21
159.975000
  0
LINE
  5
75a
100
AcDbEntity
  8
0
370
    20
100
AcDbLine
 10
92.700000
 20
147.225000
 11
92.700000
 21
124.575000
  0
HATCH
  5
75d
330
F6
100
AcDbEntity
  8
0
100
AcDbHatch
 10
0.0
 20
0.0
 30
0.0
210
0.0
220
0.0
230
1.0
  2
SOLID
 70
     1
 71
     0
 91
     1
 92
     7
 72
     0
 73
     1
 93
    10
 10
62.125000
 20
171.050000
 10
62.125000
 20
170.825000
 10
61.525000
 20
170.200000
 10
60.700000
 20
170.200000
 10
60.100000
 20
170.825000
 10
60.100000
 20
171.650000
 10
60.700000
 20
172.275000
 10
61.525000
 20
172.275000
 10
62.125000
 20
171.650000
 10
62.125000
 20
171.225000
 97
     1
330
760
 75
     0
 76
     1
 47
0.651316
 98
     1
 10
0.0
 20
0.0
  0
LWPOLYLINE
  5
760
330
F6
100
AcDbEntity
  8
0
100
AcDbPolyline
 90
    10
 70
     1
 43
0.200000
 10
62.125000
 20
171.050000
 10
62.125000
 20
170.825000
 10
61.525000
 20
170.200000
 10
60.700000
 20
170.200000
 10
60.100000
 20
170.825000
 10
60.100000
 20
171.650000
 10
60.700000
 20
172.275000
 10
61.525000
 20
172.275000
 10
62.125000
 20
171.650000
 10
62.125000
 20
171.225000
  0
CIRCLE
  5
777
100
AcDbEntity
  8
0
370
    20
100
AcDbCircle
 10
61.125000
 20
171.225000
 40
1.000000
  0
HATCH
  5
77a
330
F6
100
AcDbEntity
  8
0
100
AcDbHatch
 10
0.0
 20
0.0
 30
0.0
210
0.0
220
0.0
230
1.0
  2
SOLID
 70
     1
 71
     0
 91
     1
 92
     7
 72
     0
 73
     1
 93
    10
 10
93.100000
 20
171.050000
 10
93.100000
 20
170.825000
 10
92.475000
 20
170.200000
 10
91.675000
 20
170.200000
 10
91.050000
 20
170.825000
 10
91.050000
 20
171.650000
 10
91.675000
 20
172.275000
 10
92.475000
 20
172.275000
 10
93.100000
 20
171.650000
 10
93.100000
 20
171.225000
 97
     1
330
77d
 75
     0
 76
     1
 47
0.651316
 98
     1
 10
0.0
 20
0.0
  0
LWPOLYLINE
  5
77d
330
F6
100
AcDbEntity
  8
0
100
AcDbPolyline
 90
    10
 70
     1
 43
0.200000
 10
93.100000
 20
171.050000
 10
93.100000
 20
170.825000
 10
92.475000
 20
170.200000
 10
91.675000
 20
170.200000
 10
91.050000
 20
170.825000
 10
91.050000
 20
171.650000
 10
91.675000
 20
172.275000
 10
92.475000
 20
172.275000
 10
93.100000
 20
171.650000
 10
93.100000
 20
171.225000
  0
ELLIPSE
  5
794
100
AcDbEntity
  8
0
370
    20
100
AcDbEllipse
 10
92.050000
 20
171.225000
 30
0.000000
 11
1.050000
 21
-0.000000000000000
 31
0.000000
210
0.000000
220
0.000000
230
1.000000
 40
0.952381
 41
0.000000
 42
6.283185
  0
HATCH
  5
797
330
F6
100
AcDbEntity
  8
0
100
AcDbHatch
 10
0.0
 20
0.0
 30
0.0
210
0.0
220
0.0
230
1.0
  2
SOLID
 70
     1
 71
     0
 91
     1
 92
     7
 72
     0
 73
     1
 93
    10
 10
112.975000
 20
171.050000
 10
112.975000
 20
170.825000
 10
112.350000
 20
170.200000
 10
111.550000
 20
170.200000
 10
110.900000
 20
170.825000
 10
110.900000
 20
171.650000
 10
111.550000
 20
172.275000
 10
112.350000
 20
172.275000
 10
112.975000
 20
171.650000
 10
112.975000
 20
171.225000
 97
     1
330
79a
 75
     0
 76
     1
 47
0.651316
 98
     1
 10
0.0
 20
0.0
  0
LWPOLYLINE
  5
79a
330
F6
100
AcDbEntity
  8
0
100
AcDbPolyline
 90
    10
 70
     1
 43
0.200000
 10
112.975000
 20
171.050000
 10
112.975000
 20
170.825000
 10
112.350000
 20
170.200000
 10
111.550000
 20
170.200000
 10
110.900000
 20
170.825000
 10
110.900000
 20
171.650000
 10
111.550000
 20
172.275000
 10
112.350000
 20
172.275000
 10
112.975000
 20
171.650000
 10
112.975000
 20
171.225000
  0
ELLIPSE
  5
7b1
100
AcDbEntity
  8
0
370
    20
100
AcDbEllipse
 10
111.950000
 20
171.225000
 30
0.000000
 11
1.025000
 21
-0.000000000000000
 31
0.000000
210
0.000000
220
0.000000
230
1.000000
 40
0.975610
 41
0.000000
 42
6.283185
  0
LINE
  5
7b4
100
AcDbEntity
  8
0
370
    20
100
AcDbLine
 10
76.675000
 20
158.300000
 11
76.675000
 21
157.100000
  0
LINE
  5
7b7
100
AcDbEntity
  8
0
370
    20
100
AcDbLine
 10
72.175000
 20
174.100000
 11
73.200000
 21
174.100000
  0
LINE
  5
7ba
100
AcDbEntity
  8
0
370
    20
100
AcDbLine
 10
63.025000
 20
42.675000
 11
64.625000
 21
42.675000
  0
LWPOLYLINE
  5
7bd
100
AcDbEntity
  8
0
100
AcDbPolyline
 90
     3
 70
     0
 43
0.200000
 10
72.100000
 20
174.200000
 10
72.075000
 20
169.800000
 10
72.075000
 20
151.750000
  0
LWPOLYLINE
  5
7c6
100
AcDbEntity
  8
0
100
AcDbPolyline
 90
     3
 70
     0
 43
0.200000
 10
73.200000
 20
174.100000
 10
73.200000
 20
169.825000
 10
73.200000
 20
151.025000
  0
LINE
  5
7cf
100
AcDbEntity
  8
0
370
    20
100
AcDbLine
 10
73.200000
 20
146.850000
 11
73.200000
 21
124.600000
  0
LINE
  5
7d2
100
AcDbEntity
  8
0
370
    20
100
AcDbLine
 10
72.125000
 20
146.200000
 11
72.100000
 21
124.600000
  0
LINE
  5
7d5
100
AcDbEntity
  8
0
370
    20
100
AcDbLine
 10
115.025000
 20
171.650000
 11
115.025000
 21
170.625000
  0
LINE
  5
7d8
100
AcDbEntity
  8
0
370
    20
100
AcDbLine
 10
82.625000
 20
171.650000
 11
46.350000
 21
171.650000
  0
LINE
  5
7db
100
AcDbEntity
  8
0
370
    20
100
AcDbLine
 10
76.500000
 20
171.650000
 11
34.875000
 21
171.650000
  0
LINE
  5
7de
100
AcDbEntity
  8
0
370
    20
100
AcDbLine
 10
76.500000
 20
170.625000
 11
34.875000
 21
170.625000
  0
LINE
  5
7e1
100
AcDbEntity
  8
0
370
    20
100
AcDbLine
 10
76.500000
 20
171.650000
 11
87.950000
 21
171.650000
  0
LINE
  5
7e4
100
AcDbEntity
  8
0
370
    20
100
AcDbLine
 10
76.500000
 20
170.625000
 11
88.175000
 21
170.625000
  0
LINE
  5
7e7
100
AcDbEntity
  8
0
370
    20
100
AcDbLine
 10
87.950000
 20
171.650000
 11
94.750000
 21
171.650000
  0
LINE
  5
7ea
100
AcDbEntity
  8
0
370
    20
100
AcDbLine
 10
96.150000
 20
170.625000
 11
88.175000
 21
170.625000
  0
LINE
  5
7ed
100
AcDbEntity
  8
0
370
    20
100
AcDbLine
 10
96.175000
 20
170.625000
 11
115.025000
 21
170.625000
  0
HATCH
  5
7f0
330
F6
100
AcDbEntity
  8
0
100
AcDbHatch
 10
0.0
 20
0.0
 30
0.0
210
0.0
220
0.0
230
1.0
  2
SOLID
 70
     1
 71
     0
 91
     1
 92
     7
 72
     0
 73
     1
 93
    10
 10
112.975000
 20
167.975000
 10
112.975000
 20
167.750000
 10
112.350000
 20
167.125000
 10
111.550000
 20
167.125000
 10
110.900000
 20
167.750000
 10
110.900000
 20
168.575000
 10
111.550000
 20
169.200000
 10
112.350000
 20
169.200000
 10
112.975000
 20
168.575000
 10
112.975000
 20
168.175000
 97
     1
330
7f3
 75
     0
 76
     1
 47
0.651316
 98
     1
 10
0.0
 20
0.0
  0
LWPOLYLINE
  5
7f3
330
F6
100
AcDbEntity
  8
0
100
AcDbPolyline
 90
    10
 70
     1
 43
0.200000
 10
112.975000
 20
167.975000
 10
112.975000
 20
167.750000
 10
112.350000
 20
167.125000
 10
111.550000
 20
167.125000
 10
110.900000
 20
167.750000
 10
110.900000
 20
168.575000
 10
111.550000
 20
169.200000
 10
112.350000
 20
169.200000
 10
112.975000
 20
168.575000
 10
112.975000
 20
168.175000
  0
ELLIPSE
  5
80a
100
AcDbEntity
  8
0
370
    20
100
AcDbEllipse
 10
111.950000
 20
168.175000
 30
0.000000
 11
0.000000000000000
 21
1.050000
 31
0.000000
210
0.000000
220
0.000000
230
1.000000
 40
0.976190
 41
0.000000
 42
6.283185
  0
HATCH
  5
80d
330
F6
100
AcDbEntity
  8
0
100
AcDbHatch
 10
0.0
 20
0.0
 30
0.0
210
0.0
220
0.0
230
1.0
  2
SOLID
 70
     1
 71
     0
 91
     1
 92
     7
 72
     0
 73
     1
 93
    10
 10
92.900000
 20
140.950000
 10
92.900000
 20
140.750000
 10
92.300000
 20
140.125000
 10
91.475000
 20
140.125000
 10
90.850000
 20
140.750000
 10
90.850000
 20
141.575000
 10
91.475000
 20
142.175000
 10
92.300000
 20
142.175000
 10
92.900000
 20
141.575000
 10
92.900000
 20
141.150000
 97
     1
330
810
 75
     0
 76
     1
 47
0.651316
 98
     1
 10
0.0
 20
0.0
  0
LWPOLYLINE
  5
810
330
F6
100
AcDbEntity
  8
0
100
AcDbPolyline
 90
    10
 70
     1
 43
0.200000
 10
92.900000
 20
140.950000
 10
92.900000
 20
140.750000
 10
92.300000
 20
140.125000
 10
91.475000
 20
140.125000
 10
90.850000
 20
140.750000
 10
90.850000
 20
141.575000
 10
91.475000
 20
142.175000
 10
92.300000
 20
142.175000
 10
92.900000
 20
141.575000
 10
92.900000
 20
141.150000
  0
CIRCLE
  5
827
100
AcDbEntity
  8
0
370
    20
100
AcDbCircle
 10
91.875000
 20
141.150000
 40
1.025000
  0
HATCH
  5
82a
330
F6
100
AcDbEntity
  8
0
100
AcDbHatch
 10
0.0
 20
0.0
 30
0.0
210
0.0
220
0.0
230
1.0
  2
SOLID
 70
     1
 71
     0
 91
     1
 92
     7
 72
     0
 73
     1
 93
    10
 10
93.125000
 20
157.200000
 10
93.125000
 20
157.000000
 10
92.500000
 20
156.375000
 10
91.675000
 20
156.375000
 10
91.075000
 20
157.000000
 10
91.075000
 20
157.825000
 10
91.675000
 20
158.425000
 10
92.500000
 20
158.425000
 10
93.125000
 20
157.825000
 10
93.125000
 20
157.400000
 97
     1
330
82d
 75
     0
 76
     1
 47
0.651316
 98
     1
 10
0.0
 20
0.0
  0
LWPOLYLINE
  5
82d
330
F6
100
AcDbEntity
  8
0
100
AcDbPolyline
 90
    10
 70
     1
 43
0.200000
 10
93.125000
 20
157.200000
 10
93.125000
 20
157.000000
 10
92.500000
 20
156.375000
 10
91.675000
 20
156.375000
 10
91.075000
 20
157.000000
 10
91.075000
 20
157.825000
 10
91.675000
 20
158.425000
 10
92.500000
 20
158.425000
 10
93.125000
 20
157.825000
 10
93.125000
 20
157.400000
  0
CIRCLE
  5
844
100
AcDbEntity
  8
0
370
    20
100
AcDbCircle
 10
92.100000
 20
157.400000
 40
1.025000
  0
HATCH
  5
847
330
F6
100
AcDbEntity
  8
0
100
AcDbHatch
 10
0.0
 20
0.0
 30
0.0
210
0.0
220
0.0
230
1.0
  2
SOLID
 70
     1
 71
     0
 91
     1
 92
     7
 72
     0
 73
     1
 93
    10
 10
38.575000
 20
168.575000
 10
38.575000
 20
168.350000
 10
37.950000
 20
167.750000
 10
37.150000
 20
167.750000
 10
36.525000
 20
168.350000
 10
36.525000
 20
169.200000
 10
37.150000
 20
169.800000
 10
37.950000
 20
169.800000
 10
38.575000
 20
169.200000
 10
38.575000
 20
168.775000
 97
     1
330
84a
 75
     0
 76
     1
 47
0.651316
 98
     1
 10
0.0
 20
0.0
  0
LWPOLYLINE
  5
84a
330
F6
100
AcDbEntity
  8
0
100
AcDbPolyline
 90
    10
 70
     1
 43
0.200000
 10
38.575000
 20
168.575000
 10
38.575000
 20
168.350000
 10
37.950000
 20
167.750000
 10
37.150000
 20
167.750000
 10
36.525000
 20
168.350000
 10
36.525000
 20
169.200000
 10
37.150000
 20
169.800000
 10
37.950000
 20
169.800000
 10
38.575000
 20
169.200000
 10
38.575000
 20
168.775000
  0
CIRCLE
  5
861
100
AcDbEntity
  8
0
370
    20
100
AcDbCircle
 10
37.525000
 20
168.775000
 40
1.025000
  0
HATCH
  5
864
330
F6
100
AcDbEntity
  8
0
100
AcDbHatch
 10
0.0
 20
0.0
 30
0.0
210
0.0
220
0.0
230
1.0
  2
SOLID
 70
     1
 71
     0
 91
     1
 92
     7
 72
     0
 73
     1
 93
    10
 10
38.800000
 20
128.775000
 10
38.800000
 20
128.575000
 10
38.200000
 20
127.950000
 10
37.350000
 20
127.950000
 10
36.750000
 20
128.575000
 10
36.750000
 20
129.400000
 10
37.350000
 20
130.025000
 10
38.200000
 20
130.025000
 10
38.800000
 20
129.400000
 10
38.800000
 20
129.000000
 97
     1
330
867
 75
     0
 76
     1
 47
0.651316
 98
     1
 10
0.0
 20
0.0
  0
LWPOLYLINE
  5
867
330
F6
100
AcDbEntity
  8
0
100
AcDbPolyline
 90
    10
 70
     1
 43
0.200000
 10
38.800000
 20
128.775000
 10
38.800000
 20
128.575000
 10
38.200000
 20
127.950000
 10
37.350000
 20
127.950000
 10
36.750000
 20
128.575000
 10
36.750000
 20
129.400000
 10
37.350000
 20
130.025000
 10
38.200000
 20
130.025000
 10
38.800000
 20
129.400000
 10
38.800000
 20
129.000000
  0
ELLIPSE
  5
87e
100
AcDbEntity
  8
0
370
    20
100
AcDbEllipse
 10
37.750000
 20
129.000000
 30
0.000000
 11
0.000000000000000
 21
1.050000
 31
0.000000
210
0.000000
220
0.000000
230
1.000000
 40
0.976190
 41
0.000000
 42
6.283185
  0
HATCH
  5
881
330
F6
100
AcDbEntity
  8
0
100
AcDbHatch
 10
0.0
 20
0.0
 30
0.0
210
0.0
220
0.0
230
1.0
  2
SOLID
 70
     1
 71
     0
 91
     1
 92
     7
 72
     0
 73
     1
 93
    10
 10
62.125000
 20
156.475000
 10
62.125000
 20
156.275000
 10
61.500000
 20
155.650000
 10
60.675000
 20
155.650000
 10
60.075000
 20
156.275000
 10
60.075000
 20
157.100000
 10
60.675000
 20
157.700000
 10
61.500000
 20
157.700000
 10
62.125000
 20
157.100000
 10
62.125000
 20
156.675000
 97
     1
330
884
 75
     0
 76
     1
 47
0.651316
 98
     1
 10
0.0
 20
0.0
  0
LWPOLYLINE
  5
884
330
F6
100
AcDbEntity
  8
0
100
AcDbPolyline
 90
    10
 70
     1
 43
0.200000
 10
62.125000
 20
156.475000
 10
62.125000
 20
156.275000
 10
61.500000
 20
155.650000
 10
60.675000
 20
155.650000
 10
60.075000
 20
156.275000
 10
60.075000
 20
157.100000
 10
60.675000
 20
157.700000
 10
61.500000
 20
157.700000
 10
62.125000
 20
157.100000
 10
62.125000
 20
156.675000
  0
ELLIPSE
  5
89b
100
AcDbEntity
  8
0
370
    20
100
AcDbEllipse
 10
61.100000
 20
156.675000
 30
0.000000
 11
1.025000
 21
-0.000000000000000
 31
0.000000
210
0.000000
220
0.000000
230
1.000000
 40
0.975610
 41
0.000000
 42
6.283185
  0
HATCH
  5
89e
330
F6
100
AcDbEntity
  8
0
100
AcDbHatch
 10
0.0
 20
0.0
 30
0.0
210
0.0
220
0.0
230
1.0
  2
SOLID
 70
     1
 71
     0
 91
     1
 92
     7
 72
     0
 73
     1
 93
    10
 10
62.225000
 20
141.175000
 10
62.225000
 20
140.950000
 10
61.600000
 20
140.350000
 10
60.775000
 20
140.350000
 10
60.150000
 20
140.950000
 10
60.150000
 20
141.775000
 10
60.775000
 20
142.400000
 10
61.600000
 20
142.400000
 10
62.225000
 20
141.775000
 10
62.225000
 20
141.350000
 97
     1
330
8a1
 75
     0
 76
     1
 47
0.651316
 98
     1
 10
0.0
 20
0.0
  0
LWPOLYLINE
  5
8a1
330
F6
100
AcDbEntity
  8
0
100
AcDbPolyline
 90
    10
 70
     1
 43
0.200000
 10
62.225000
 20
141.175000
 10
62.225000
 20
140.950000
 10
61.600000
 20
140.350000
 10
60.775000
 20
140.350000
 10
60.150000
 20
140.950000
 10
60.150000
 20
141.775000
 10
60.775000
 20
142.400000
 10
61.600000
 20
142.400000
 10
62.225000
 20
141.775000
 10
62.225000
 20
141.350000
  0
ELLIPSE
  5
8b8
100
AcDbEntity
  8
0
370
    20
100
AcDbEllipse
 10
61.200000
 20
141.350000
 30
0.000000
 11
1.025000
 21
-0.000000000000000
 31
0.000000
210
0.000000
220
0.000000
230
1.000000
 40
0.975610
 41
0.000000
 42
6.283185
  0
LINE
  5
8bb
100
AcDbEntity
  8
0
370
    20
100
AcDbLine
 10
60.700000
 20
173.075000
 11
54.150000
 21
173.075000
  0
LINE
  5
8be
100
AcDbEntity
  8
0
370
    20
100
AcDbLine
 10
61.725000
 20
173.075000
 11
72.175000
 21
173.075000
  0
LINE
  5
8c1
100
AcDbEntity
  8
0
370
    20
100
AcDbLine
 10
55.175000
 20
173.075000
 11
60.700000
 21
173.075000
  0
LINE
  5
8c4
100
AcDbEntity
  8
0
370
    20
100
AcDbLine
 10
61.725000
 20
173.075000
 11
72.175000
 21
173.075000
  0
LINE
  5
8c7
100
AcDbEntity
  8
0
370
    20
100
AcDbLine
 10
95.725000
 20
171.650000
 11
88.800000
 21
171.650000
  0
LINE
  5
8ca
100
AcDbEntity
  8
0
370
    20
100
AcDbLine
 10
95.750000
 20
171.650000
 11
115.025000
 21
171.650000
  0
HATCH
  5
8cd
330
F6
100
AcDbEntity
  8
0
100
AcDbHatch
 10
0.0
 20
0.0
 30
0.0
210
0.0
220
0.0
230
1.0
  2
SOLID
 70
     1
 71
     0
 91
     1
 92
     7
 72
     0
 73
     1
 93
    10
 10
101.300000
 20
171.050000
 10
101.300000
 20
170.825000
 10
100.675000
 20
170.200000
 10
99.850000
 20
170.200000
 10
99.250000
 20
170.825000
 10
99.250000
 20
171.650000
 10
99.850000
 20
172.275000
 10
100.675000
 20
172.275000
 10
101.300000
 20
171.650000
 10
101.300000
 20
171.225000
 97
     1
330
8d0
 75
     0
 76
     1
 47
0.651316
 98
     1
 10
0.0
 20
0.0
  0
LWPOLYLINE
  5
8d0
330
F6
100
AcDbEntity
  8
0
100
AcDbPolyline
 90
    10
 70
     1
 43
0.200000
 10
101.300000
 20
171.050000
 10
101.300000
 20
170.825000
 10
100.675000
 20
170.200000
 10
99.850000
 20
170.200000
 10
99.250000
 20
170.825000
 10
99.250000
 20
171.650000
 10
99.850000
 20
172.275000
 10
100.675000
 20
172.275000
 10
101.300000
 20
171.650000
 10
101.300000
 20
171.225000
  0
ELLIPSE
  5
8e7
100
AcDbEntity
  8
0
370
    20
100
AcDbEllipse
 10
100.275000
 20
171.225000
 30
0.000000
 11
1.025000
 21
-0.000000000000000
 31
0.000000
210
0.000000
220
0.000000
230
1.000000
 40
0.975610
 41
0.000000
 42
6.283185
  0
LINE
  5
8ea
100
AcDbEntity
  8
0
 62
     7
370
    60
100
AcDbLine
 10
91.050000
 20
171.850000
 11
83.250000
 21
171.850000
  0
LINE
  5
8ed
100
AcDbEntity
  8
0
 62
     7
370
    60
100
AcDbLine
 10
95.775000
 20
171.850000
 11
92.675000
 21
171.850000
  0
LINE
  5
8f0
100
AcDbEntity
  8
0
 62
     7
370
    60
100
AcDbLine
 10
95.750000
 20
171.850000
 11
98.850000
 21
171.850000
  0
LINE
  5
8f3
100
AcDbEntity
  8
0
 62
     7
370
    60
100
AcDbLine
 10
100.875000
 20
171.850000
 11
111.125000
 21
171.850000
  0
LINE
  5
8f6
100
AcDbEntity
  8
0
370
    20
100
AcDbLine
 10
82.000000
 20
157.100000
 11
82.000000
 21
174.100000
  0
LINE
  5
8f9
100
AcDbEntity
  8
0
 62
     7
370
    60
100
AcDbLine
 10
38.175000
 20
171.850000
 11
46.350000
 21
171.850000
  0
LINE
  5
8fc
100
AcDbEntity
  8
0
 62
     7
370
    60
100
AcDbLine
 10
48.000000
 20
171.850000
 11
60.500000
 21
171.850000
  0
LINE
  5
8ff
100
AcDbEntity
  8
0
 62
     7
370
    60
100
AcDbLine
 10
62.125000
 20
171.850000
 11
71.800000
 21
171.850000
  0
LINE
  5
902
100
AcDbEntity
  8
0
 62
     7
370
    60
100
AcDbLine
 10
73.400000
 20
171.850000
 11
81.400000
 21
171.850000
  0
MTEXT
  5
905
100
AcDbEntity
  8
0
100
AcDbMText
 10
51.275000
 20
168.900000
 40
1.856250
 41
26.730000
 71
     1
 72
     5
  1
\f@ＭＳ 明朝|b0|i0|c128|p17;\T1.8854;オイルポンプ
 44
1.199166
 73
     1
 11
-0.000000000000000
 21
-1.000000
 31
0.000000
  7
BIGFONT
  0
HATCH
  5
908
330
F6
100
AcDbEntity
  8
0
100
AcDbHatch
 10
0.0
 20
0.0
 30
0.0
210
0.0
220
0.0
230
1.0
  2
SOLID
 70
     1
 71
     0
 91
     1
 92
     7
 72
     0
 73
     1
 93
    10
 10
112.975000
 20
130.775000
 10
112.975000
 20
130.550000
 10
112.350000
 20
129.925000
 10
111.525000
 20
129.925000
 10
110.900000
 20
130.550000
 10
110.900000
 20
131.375000
 10
111.525000
 20
132.000000
 10
112.350000
 20
132.000000
 10
112.975000
 20
131.375000
 10
112.975000
 20
130.950000
 97
     1
330
90b
 75
     0
 76
     1
 47
0.651316
 98
     1
 10
0.0
 20
0.0
  0
LWPOLYLINE
  5
90b
330
F6
100
AcDbEntity
  8
0
100
AcDbPolyline
 90
    10
 70
     1
 43
0.200000
 10
112.975000
 20
130.775000
 10
112.975000
 20
130.550000
 10
112.350000
 20
129.925000
 10
111.525000
 20
129.925000
 10
110.900000
 20
130.550000
 10
110.900000
 20
131.375000
 10
111.525000
 20
132.000000
 10
112.350000
 20
132.000000
 10
112.975000
 20
131.375000
 10
112.975000
 20
130.950000
  0
CIRCLE
  5
922
100
AcDbEntity
  8
0
370
    20
100
AcDbCircle
 10
111.950000
 20
130.950000
 40
1.025000
  0
SPLINE
  5
925
100
AcDbEntity
  8
0
370
    20
100
AcDbSpline
210
0.000000
220
0.000000
230
1.000000
 70
     8
 71
     3
 72
    17
 73
    13
 74
     0
 42
0.0000001
 43
0.0000001
 44
0.0000000001
 40
0.000000
 40
0.000000
 40
0.000000
 40
0.000000
 40
1.620378
 40
1.620378
 40
1.620378
 40
4.580530
 40
4.580530
 40
4.580530
 40
8.474757
 40
8.474757
 40
8.474757
 40
12.076232
 40
12.076232
 40
12.076232
 40
12.076232
 10
79.050000
 20
202.975000
 30
0.000000
 10
79.225000
 20
202.750000
 30
0.000000
 10
79.750000
 20
202.375000
 30
0.000000
 10
80.050000
 20
201.700000
 30
0.000000
 10
80.350000
 20
201.000000
 30
0.000000
 10
80.900000
 20
199.950000
 30
0.000000
 10
80.850000
 20
198.850000
 30
0.000000
 10
80.825000
 20
197.750000
 30
0.000000
 10
80.275000
 20
196.250000
 30
0.000000
 10
79.800000
 20
195.100000
 30
0.000000
 10
79.350000
 20
193.925000
 30
0.000000
 10
78.400000
 20
192.450000
 30
0.000000
 10
78.100000
 20
191.925000
 30
0.000000
  0
SPLINE
  5
928
100
AcDbEntity
  8
0
370
    20
100
AcDbSpline
210
0.000000
220
0.000000
230
1.000000
 70
     8
 71
     3
 72
    23
 73
    19
 74
     0
 42
0.0000001
 43
0.0000001
 44
0.0000000001
 40
0.000000
 40
0.000000
 40
0.000000
 40
0.000000
 40
1.450216
 40
1.450216
 40
1.450216
 40
3.800747
 40
3.800747
 40
3.800747
 40
5.350747
 40
5.350747
 40
5.350747
 40
7.449110
 40
7.449110
 40
7.449110
 40
9.324110
 40
9.324110
 40
9.324110
 40
12.583136
 40
12.583136
 40
12.583136
 40
12.583136
 10
79.600000
 20
203.250000
 30
0.000000
 10
79.750000
 20
203.050000
 30
0.000000
 10
80.150000
 20
202.625000
 30
0.000000
 10
80.450000
 20
202.075000
 30
0.000000
 10
80.750000
 20
201.500000
 30
0.000000
 10
81.250000
 20
200.525000
 30
0.000000
 10
81.400000
 20
199.925000
 30
0.000000
 10
81.575000
 20
199.300000
 30
0.000000
 10
81.500000
 20
198.950000
 30
0.000000
 10
81.400000
 20
198.375000
 30
0.000000
 10
81.325000
 20
197.775000
 30
0.000000
 10
81.050000
 20
196.975000
 30
0.000000
 10
80.850000
 20
196.350000
 30
0.000000
 10
80.675000
 20
195.700000
 30
0.000000
 10
80.700000
 20
195.300000
 30
0.000000
 10
80.325000
 20
194.550000
 30
0.000000
 10
79.975000
 20
193.775000
 30
0.000000
 10
78.975000
 20
192.175000
 30
0.000000
 10
78.700000
 20
191.725000
 30
0.000000
  0
LINE
  5
92b
100
AcDbEntity
  8
0
370
    40
100
AcDbLine
 10
78.875000
 20
169.050000
 11
78.875000
 21
157.500000
  0
LINE
  5
92e
100
AcDbEntity
  8
0
370
    20
100
AcDbLine
 10
115.125000
 20
169.250000
 11
35.250000
 21
126.900000
  0
LINE
  5
931
100
AcDbEntity
  8
0
370
    20
100
AcDbLine
 10
34.700000
 20
128.075000
 11
114.550000
 21
170.000000
  0
LINE
  5
934
100
AcDbEntity
  8
0
370
    20
100
AcDbLine
 10
114.575000
 20
169.950000
 11
115.025000
 21
169.250000
  0
LINE
  5
937
100
AcDbEntity
  8
0
370
    20
100
AcDbLine
 10
72.100000
 20
147.775000
 11
72.100000
 21
150.625000
  0
LINE
  5
93a
100
AcDbEntity
  8
0
370
    20
100
AcDbLine
 10
73.200000
 20
148.300000
 11
73.200000
 21
150.100000
  0
LINE
  5
93d
100
AcDbEntity
  8
0
370
    20
100
AcDbLine
 10
114.200000
 20
129.325000
 11
76.175000
 21
148.600000
  0
LINE
  5
940
100
AcDbEntity
  8
0
370
    20
100
AcDbLine
 10
74.975000
 20
149.225000
 11
35.075000
 21
169.450000
  0
LINE
  5
943
100
AcDbEntity
  8
0
370
    40
100
AcDbLine
 10
75.550000
 20
169.100000
 11
75.550000
 21
150.000000
  0
LINE
  5
946
100
AcDbEntity
  8
0
370
    40
100
AcDbLine
 10
75.550000
 20
30.000000
 11
75.550000
 21
100.800000
  0
LINE
  5
949
100
AcDbEntity
  8
0
370
    40
100
AcDbLine
 10
75.550000
 20
102.200000
 11
75.550000
 21
124.075000
  0
LINE
  5
94c
100
AcDbEntity
  8
0
370
    40
100
AcDbLine
 10
75.550000
 20
125.050000
 11
75.550000
 21
148.275000
  0
LINE
  5
94f
100
AcDbEntity
  8
0
370
    20
100
AcDbLine
 10
75.975000
 20
149.750000
 11
35.425000
 21
170.300000
  0
LINE
  5
952
100
AcDbEntity
  8
0
370
    20
100
AcDbLine
 10
76.675000
 20
170.625000
 11
76.675000
 21
150.100000
  0
LINE
  5
955
100
AcDbEntity
  8
0
370
    20
100
AcDbLine
 10
76.675000
 20
148.350000
 11
76.675000
 21
139.050000
  0
LINE
  5
958
100
AcDbEntity
  8
0
370
    20
100
AcDbLine
 10
77.725000
 20
170.575000
 11
77.725000
 21
150.650000
  0
LINE
  5
95b
100
AcDbEntity
  8
0
370
    40
100
AcDbLine
 10
78.875000
 20
157.500000
 11
78.875000
 21
151.275000
  0
LINE
  5
95e
100
AcDbEntity
  8
0
370
    20
100
AcDbLine
 10
82.000000
 20
147.300000
 11
82.000000
 21
151.700000
  0
LINE
  5
961
100
AcDbEntity
  8
0
370
    20
100
AcDbLine
 10
82.000000
 20
152.925000
 11
82.000000
 21
157.100000
  0
LINE
  5
964
100
AcDbEntity
  8
0
370
    20
100
AcDbLine
 10
83.125000
 20
146.275000
 11
83.125000
 21
152.250000
  0
LINE
  5
967
100
AcDbEntity
  8
0
370
    20
100
AcDbLine
 10
83.175000
 20
173.950000
 11
83.150000
 21
153.450000
  0
LINE
  5
96a
100
AcDbEntity
  8
0
370
    20
100
AcDbLine
 10
82.000000
 20
147.300000
 11
82.000000
 21
146.750000
  0
LINE
  5
96d
100
AcDbEntity
  8
0
370
    20
100
AcDbLine
 10
82.000000
 20
145.650000
 11
82.000000
 21
125.225000
  0
LINE
  5
970
100
AcDbEntity
  8
0
370
    20
100
AcDbLine
 10
114.700000
 20
130.025000
 11
91.300000
 21
141.975000
  0
LINE
  5
973
100
AcDbEntity
  8
0
370
    20
100
AcDbLine
 10
91.250000
 20
142.000000
 11
77.175000
 21
149.125000
  0
LINE
  5
976
100
AcDbEntity
  8
0
370
    40
100
AcDbLine
 10
78.875000
 20
150.050000
 11
78.875000
 21
148.275000
  0
LINE
  5
979
100
AcDbEntity
  8
0
370
    40
100
AcDbLine
 10
78.825000
 20
99.025000
 11
78.975000
 21
29.850000
  0
LINE
  5
97c
100
AcDbEntity
  8
0
370
    40
100
AcDbLine
 10
78.875000
 20
102.500000
 11
78.875000
 21
100.475000
  0
LINE
  5
97f
100
AcDbEntity
  8
0
370
    40
100
AcDbLine
 10
78.875000
 20
103.950000
 11
78.875000
 21
124.075000
  0
LINE
  5
982
100
AcDbEntity
  8
0
370
    40
100
AcDbLine
 10
78.875000
 20
125.050000
 11
78.875000
 21
147.250000
  0
LINE
  5
985
100
AcDbEntity
  8
0
370
    20
100
AcDbLine
 10
77.725000
 20
149.425000
 11
77.725000
 21
148.875000
  0
LINE
  5
988
100
AcDbEntity
  8
0
370
    20
100
AcDbLine
 10
77.725000
 20
147.850000
 11
77.725000
 21
139.050000
  0
LINE
  5
98b
100
AcDbEntity
  8
0
370
    20
100
AcDbLine
 10
83.150000
 20
145.125000
 11
83.150000
 21
125.225000
  0
POINT
  5
98e
100
AcDbEntity
  8
0
100
AcDbPoint
 10
53.850000
 20
53.075000
  0
POINT
  5
991
100
AcDbEntity
  8
0
100
AcDbPoint
 10
55.200000
 20
50.250000
  0
POINT
  5
994
100
AcDbEntity
  8
0
100
AcDbPoint
 10
56.150000
 20
45.875000
  0
POINT
  5
997
100
AcDbEntity
  8
0
100
AcDbPoint
 10
51.350000
 20
47.650000
  0
POINT
  5
99a
100
AcDbEntity
  8
0
100
AcDbPoint
 10
49.475000
 20
51.700000
  0
POINT
  5
99d
100
AcDbEntity
  8
0
100
AcDbPoint
 10
47.250000
 20
53.950000
  0
POINT
  5
9a0
100
AcDbEntity
  8
0
100
AcDbPoint
 10
48.525000
 20
53.950000
  0
POINT
  5
9a3
100
AcDbEntity
  8
0
100
AcDbPoint
 10
51.350000
 20
53.950000
  0
POINT
  5
9a6
100
AcDbEntity
  8
0
100
AcDbPoint
 10
53.225000
 20
53.875000
  0
POINT
  5
9a9
100
AcDbEntity
  8
0
100
AcDbPoint
 10
47.075000
 20
54.100000
  0
POINT
  5
9ac
100
AcDbEntity
  8
0
100
AcDbPoint
 10
46.575000
 20
51.200000
  0
POINT
  5
9af
100
AcDbEntity
  8
0
100
AcDbPoint
 10
47.500000
 20
51.200000
  0
POINT
  5
9b2
100
AcDbEntity
  8
0
100
AcDbPoint
 10
50.425000
 20
50.250000
  0
POINT
  5
9b5
100
AcDbEntity
  8
0
100
AcDbPoint
 10
52.075000
 20
52.025000
  0
POINT
  5
9b8
100
AcDbEntity
  8
0
100
AcDbPoint
 10
53.950000
 20
50.050000
  0
POINT
  5
9bb
100
AcDbEntity
  8
0
100
AcDbPoint
 10
53.950000
 20
45.775000
  0
POINT
  5
9be
100
AcDbEntity
  8
0
100
AcDbPoint
 10
54.900000
 20
43.900000
  0
POINT
  5
9c1
100
AcDbEntity
  8
0
100
AcDbPoint
 10
48.450000
 20
48.900000
  0
POINT
  5
9c4
100
AcDbEntity
  8
0
100
AcDbPoint
 10
49.700000
 20
46.300000
  0
POINT
  5
9c7
100
AcDbEntity
  8
0
100
AcDbPoint
 10
55.200000
 20
47.850000
  0
POINT
  5
9ca
100
AcDbEntity
  8
0
100
AcDbPoint
 10
49.900000
 20
53.575000
  0
POINT
  5
9cd
100
AcDbEntity
  8
0
100
AcDbPoint
 10
45.825000
 20
54.425000
  0
POINT
  5
9d0
100
AcDbEntity
  8
0
100
AcDbPoint
 10
48.950000
 20
54.825000
  0
POINT
  5
9d3
100
AcDbEntity
  8
0
100
AcDbPoint
 10
49.325000
 20
53.675000
  0
POINT
  5
9d6
100
AcDbEntity
  8
0
100
AcDbPoint
 10
55.625000
 20
54.100000
  0
POINT
  5
9d9
100
AcDbEntity
  8
0
100
AcDbPoint
 10
82.225000
 20
54.100000
  0
POINT
  5
9dc
100
AcDbEntity
  8
0
100
AcDbPoint
 10
97.700000
 20
54.425000
  0
POINT
  5
9df
100
AcDbEntity
  8
0
100
AcDbPoint
 10
97.600000
 20
49.525000
  0
POINT
  5
9e2
100
AcDbEntity
  8
0
100
AcDbPoint
 10
94.375000
 20
46.300000
  0
POINT
  5
9e5
100
AcDbEntity
  8
0
100
AcDbPoint
 10
95.000000
 20
43.475000
  0
POINT
  5
9e8
100
AcDbEntity
  8
0
100
AcDbPoint
 10
97.200000
 20
47.450000
  0
POINT
  5
9eb
100
AcDbEntity
  8
0
100
AcDbPoint
 10
103.650000
 20
47.750000
  0
POINT
  5
9ee
100
AcDbEntity
  8
0
100
AcDbPoint
 10
104.175000
 20
54.950000
  0
POINT
  5
9f1
100
AcDbEntity
  8
0
100
AcDbPoint
 10
87.550000
 20
54.350000
  0
POINT
  5
9f4
100
AcDbEntity
  8
0
100
AcDbPoint
 10
84.175000
 20
54.825000
  0
POINT
  5
9f7
100
AcDbEntity
  8
0
100
AcDbPoint
 10
90.100000
 20
54.100000
  0
POINT
  5
9fa
100
AcDbEntity
  8
0
100
AcDbPoint
 10
92.800000
 20
53.875000
  0
POINT
  5
9fd
100
AcDbEntity
  8
0
100
AcDbPoint
 10
101.675000
 20
43.425000
  0
POINT
  5
a00
100
AcDbEntity
  8
0
100
AcDbPoint
 10
106.050000
 20
43.225000
  0
POINT
  5
a03
100
AcDbEntity
  8
0
100
AcDbPoint
 10
97.625000
 20
54.150000
  0
POINT
  5
a06
100
AcDbEntity
  8
0
100
AcDbPoint
 10
102.275000
 20
54.200000
  0
POINT
  5
a09
100
AcDbEntity
  8
0
100
AcDbPoint
 10
100.275000
 20
54.825000
  0
POINT
  5
a0c
100
AcDbEntity
  8
0
100
AcDbPoint
 10
94.075000
 20
54.825000
  0
POINT
  5
a0f
100
AcDbEntity
  8
0
100
AcDbPoint
 10
88.575000
 20
55.025000
  0
POINT
  5
a12
100
AcDbEntity
  8
0
100
AcDbPoint
 10
89.500000
 20
53.425000
  0
POINT
  5
a15
100
AcDbEntity
  8
0
100
AcDbPoint
 10
107.300000
 20
54.325000
  0
POINT
  5
a18
100
AcDbEntity
  8
0
100
AcDbPoint
 10
107.700000
 20
53.900000
  0
POINT
  5
a1b
100
AcDbEntity
  8
0
100
AcDbPoint
 10
103.975000
 20
54.500000
  0
POINT
  5
a1e
100
AcDbEntity
  8
0
100
AcDbPoint
 10
96.350000
 20
53.425000
  0
POINT
  5
a21
100
AcDbEntity
  8
0
100
AcDbPoint
 10
107.600000
 20
48.800000
  0
POINT
  5
a24
100
AcDbEntity
  8
0
100
AcDbPoint
 10
100.825000
 20
45.575000
  0
POINT
  5
a27
100
AcDbEntity
  8
0
100
AcDbPoint
 10
100.825000
 20
48.800000
  0
POINT
  5
a2a
100
AcDbEntity
  8
0
100
AcDbPoint
 10
97.925000
 20
44.825000
  0
POINT
  5
a2d
100
AcDbEntity
  8
0
100
AcDbPoint
 10
62.975000
 20
40.775000
  0
POINT
  5
a30
100
AcDbEntity
  8
0
100
AcDbPoint
 10
68.600000
 20
38.275000
  0
POINT
  5
a33
100
AcDbEntity
  8
0
100
AcDbPoint
 10
72.025000
 20
40.775000
  0
POINT
  5
a36
100
AcDbEntity
  8
0
100
AcDbPoint
 10
72.200000
 20
34.200000
  0
POINT
  5
a39
100
AcDbEntity
  8
0
100
AcDbPoint
 10
69.375000
 20
30.150000
  0
POINT
  5
a3c
100
AcDbEntity
  8
0
100
AcDbPoint
 10
66.575000
 20
35.150000
  0
POINT
  5
a3f
100
AcDbEntity
  8
0
100
AcDbPoint
 10
73.275000
 20
25.925000
  0
POINT
  5
a42
100
AcDbEntity
  8
0
100
AcDbPoint
 10
69.525000
 20
20.925000
  0
POINT
  5
a45
100
AcDbEntity
  8
0
100
AcDbPoint
 10
70.625000
 20
15.625000
  0
POINT
  5
a48
100
AcDbEntity
  8
0
100
AcDbPoint
 10
73.750000
 20
10.450000
  0
POINT
  5
a4b
100
AcDbEntity
  8
0
100
AcDbPoint
 10
77.825000
 20
11.400000
  0
POINT
  5
a4e
100
AcDbEntity
  8
0
100
AcDbPoint
 10
83.125000
 20
10.925000
  0
POINT
  5
a51
100
AcDbEntity
  8
0
100
AcDbPoint
 10
86.100000
 20
16.700000
  0
POINT
  5
a54
100
AcDbEntity
  8
0
100
AcDbPoint
 10
81.400000
 20
23.275000
  0
POINT
  5
a57
100
AcDbEntity
  8
0
100
AcDbPoint
 10
88.125000
 20
23.125000
  0
POINT
  5
a5a
100
AcDbEntity
  8
0
100
AcDbPoint
 10
84.225000
 20
29.200000
  0
POINT
  5
a5d
100
AcDbEntity
  8
0
100
AcDbPoint
 10
87.650000
 20
29.200000
  0
POINT
  5
a60
100
AcDbEntity
  8
0
100
AcDbPoint
 10
92.200000
 20
39.525000
  0
POINT
  5
a63
100
AcDbEntity
  8
0
100
AcDbPoint
 10
83.900000
 20
40.300000
  0
POINT
  5
a66
100
AcDbEntity
  8
0
100
AcDbPoint
 10
88.275000
 20
36.875000
  0
POINT
  5
a69
100
AcDbEntity
  8
0
100
AcDbPoint
 10
81.575000
 20
33.125000
  0
POINT
  5
a6c
100
AcDbEntity
  8
0
100
AcDbPoint
 10
85.150000
 20
35.000000
  0
POINT
  5
a6f
100
AcDbEntity
  8
0
100
AcDbPoint
 10
91.875000
 20
32.175000
  0
POINT
  5
a72
100
AcDbEntity
  8
0
100
AcDbPoint
 10
77.300000
 20
15.150000
  0
POINT
  5
a75
100
AcDbEntity
  8
0
100
AcDbPoint
 10
77.200000
 20
20.150000
  0
POINT
  5
a78
100
AcDbEntity
  8
0
100
AcDbPoint
 10
64.850000
 20
38.275000
  0
POINT
  5
a7b
100
AcDbEntity
  8
0
100
AcDbPoint
 10
67.350000
 20
41.075000
  0
POINT
  5
a7e
100
AcDbEntity
  8
0
100
AcDbPoint
 10
72.975000
 20
37.500000
  0
POINT
  5
a81
100
AcDbEntity
  8
0
100
AcDbPoint
 10
70.000000
 20
34.525000
  0
POINT
  5
a84
100
AcDbEntity
  8
0
100
AcDbPoint
 10
67.825000
 20
32.650000
  0
POINT
  5
a87
100
AcDbEntity
  8
0
100
AcDbPoint
 10
71.875000
 20
30.300000
  0
POINT
  5
a8a
100
AcDbEntity
  8
0
100
AcDbPoint
 10
68.450000
 20
26.400000
  0
POINT
  5
a8d
100
AcDbEntity
  8
0
100
AcDbPoint
 10
72.350000
 20
22.500000
  0
POINT
  5
a90
100
AcDbEntity
  8
0
100
AcDbPoint
 10
71.875000
 20
19.200000
  0
POINT
  5
a93
100
AcDbEntity
  8
0
100
AcDbPoint
 10
70.775000
 20
12.025000
  0
POINT
  5
a96
100
AcDbEntity
  8
0
100
AcDbPoint
 10
77.025000
 20
9.375000
  0
POINT
  5
a99
100
AcDbEntity
  8
0
100
AcDbPoint
 10
81.100000
 20
12.175000
  0
POINT
  5
a9c
100
AcDbEntity
  8
0
100
AcDbPoint
 10
82.825000
 20
16.075000
  0
POINT
  5
a9f
100
AcDbEntity
  8
0
100
AcDbPoint
 10
88.450000
 20
17.325000
  0
POINT
  5
aa2
100
AcDbEntity
  8
0
100
AcDbPoint
 10
84.850000
 20
23.900000
  0
POINT
  5
aa5
100
AcDbEntity
  8
0
100
AcDbPoint
 10
82.825000
 20
31.250000
  0
POINT
  5
aa8
100
AcDbEntity
  8
0
100
AcDbPoint
 10
86.725000
 20
31.550000
  0
POINT
  5
aab
100
AcDbEntity
  8
0
100
AcDbPoint
 10
89.850000
 20
34.200000
  0
POINT
  5
aae
100
AcDbEntity
  8
0
100
AcDbPoint
 10
82.975000
 20
38.425000
  0
POINT
  5
ab1
100
AcDbEntity
  8
0
100
AcDbPoint
 10
87.650000
 20
40.150000
  0
LINE
  5
ab4
100
AcDbEntity
  8
0
370
    20
100
AcDbLine
 10
34.875000
 20
144.775000
 11
117.825000
 21
144.775000
  0
MTEXT
  5
ab7
100
AcDbEntity
  8
0
100
AcDbMText
 10
40.925000
 20
147.850000
 40
1.856250
 41
13.365000
 71
     1
 72
     5
  1
\fＭＳ 明朝|b0|i0|c128|p17;\T1.4384;満潮位
 44
1.576174
 73
     1
  7
BIGFONT
  0
MTEXT
  5
aba
100
AcDbEntity
  8
0
100
AcDbMText
 10
40.450000
 20
107.050000
 40
1.856250
 41
13.365000
 71
     1
 72
     5
  1
\fＭＳ 明朝|b0|i0|c128|p17;\T1.4384;干潮位
 44
1.576174
 73
     1
  7
BIGFONT
  0
LINE
  5
abd
100
AcDbEntity
  8
0
370
    20
100
AcDbLine
 10
79.000000
 20
42.950000
 11
79.150000
 21
42.950000
  0
LINE
  5
ac0
100
AcDbEntity
  8
0
370
    20
100
AcDbLine
 10
79.500000
 20
42.950000
 11
80.575000
 21
42.950000
  0
POINT
  5
ac3
100
AcDbEntity
  8
0
100
AcDbPoint
 10
99.075000
 20
32.650000
  0
POINT
  5
ac6
100
AcDbEntity
  8
0
100
AcDbPoint
 10
97.975000
 20
37.175000
  0
POINT
  5
ac9
100
AcDbEntity
  8
0
100
AcDbPoint
 10
104.525000
 20
34.825000
  0
POINT
  5
acc
100
AcDbEntity
  8
0
100
AcDbPoint
 10
100.775000
 20
41.250000
  0
POINT
  5
acf
100
AcDbEntity
  8
0
100
AcDbPoint
 10
103.125000
 20
37.650000
  0
LINE
  5
ad2
100
AcDbEntity
  8
0
370
    20
100
AcDbLine
 10
100.950000
 20
43.125000
 11
110.950000
 21
45.250000
  0
POINT
  5
ad5
100
AcDbEntity
  8
0
100
AcDbPoint
 10
97.825000
 20
34.825000
  0
POINT
  5
ad8
100
AcDbEntity
  8
0
100
AcDbPoint
 10
102.975000
 20
39.675000
  0
POINT
  5
adb
100
AcDbEntity
  8
0
100
AcDbPoint
 10
95.475000
 20
29.675000
  0
POINT
  5
ade
100
AcDbEntity
  8
0
100
AcDbPoint
 10
103.600000
 20
30.450000
  0
LINE
  5
ae1
100
AcDbEntity
  8
0
370
    20
100
AcDbLine
 10
55.575000
 20
104.275000
 11
55.575000
 21
144.675000
  0
LWPOLYLINE
  5
ae4
100
AcDbEntity
  8
0
100
AcDbPolyline
 90
     3
 70
     0
 43
0.200000
 10
55.050000
 20
106.225000
 10
55.575000
 20
104.275000
 10
56.075000
 20
106.225000
  0
LWPOLYLINE
  5
aed
100
AcDbEntity
  8
0
100
AcDbPolyline
 90
     3
 70
     0
 43
0.200000
 10
56.050000
 20
142.825000
 10
55.575000
 20
144.675000
 10
55.050000
 20
142.825000
  0
LINE
  5
af6
100
AcDbEntity
  8
0
370
    20
100
AcDbLine
 10
37.150000
 20
124.425000
 11
37.150000
 21
75.325000
  0
LINE
  5
af9
100
AcDbEntity
  8
0
370
    20
100
AcDbLine
 10
38.175000
 20
124.425000
 11
38.175000
 21
75.325000
  0
LINE
  5
afc
100
AcDbEntity
  8
0
370
    20
100
AcDbLine
 10
37.150000
 20
124.425000
 11
38.175000
 21
124.425000
  0
LINE
  5
aff
100
AcDbEntity
  8
0
370
    20
100
AcDbLine
 10
37.150000
 20
75.325000
 11
38.175000
 21
75.325000
  0
LINE
  5
b02
100
AcDbEntity
  8
0
370
    20
100
AcDbLine
 10
60.700000
 20
124.525000
 11
60.700000
 21
75.025000
  0
LINE
  5
b05
100
AcDbEntity
  8
0
370
    20
100
AcDbLine
 10
61.725000
 20
124.525000
 11
61.725000
 21
75.025000
  0
LINE
  5
b08
100
AcDbEntity
  8
0
370
    20
100
AcDbLine
 10
60.700000
 20
124.525000
 11
61.725000
 21
124.525000
  0
LINE
  5
b0b
100
AcDbEntity
  8
0
370
    20
100
AcDbLine
 10
60.700000
 20
75.025000
 11
61.725000
 21
75.025000
  0
LINE
  5
b0e
100
AcDbEntity
  8
0
370
    20
100
AcDbLine
 10
111.325000
 20
126.100000
 11
111.325000
 21
76.600000
  0
LINE
  5
b11
100
AcDbEntity
  8
0
370
    20
100
AcDbLine
 10
112.350000
 20
126.100000
 11
112.350000
 21
76.600000
  0
LINE
  5
b14
100
AcDbEntity
  8
0
370
    20
100
AcDbLine
 10
111.325000
 20
126.100000
 11
112.350000
 21
126.100000
  0
LINE
  5
b17
100
AcDbEntity
  8
0
370
    20
100
AcDbLine
 10
111.325000
 20
76.600000
 11
112.350000
 21
76.600000
  0
LINE
  5
b1a
100
AcDbEntity
  8
0
370
    20
100
AcDbLine
 10
72.150000
 20
103.675000
 11
72.150000
 21
124.725000
  0
LINE
  5
b1d
100
AcDbEntity
  8
0
370
    20
100
AcDbLine
 10
72.150000
 20
100.375000
 11
72.150000
 21
102.475000
  0
LINE
  5
b20
100
AcDbEntity
  8
0
370
    20
100
AcDbLine
 10
72.150000
 20
98.925000
 11
72.150000
 21
75.625000
  0
LINE
  5
b23
100
AcDbEntity
  8
0
370
    20
100
AcDbLine
 10
73.175000
 20
103.225000
 11
73.175000
 21
124.725000
  0
LINE
  5
b26
100
AcDbEntity
  8
0
370
    20
100
AcDbLine
 10
73.175000
 20
101.975000
 11
73.175000
 21
100.825000
  0
LINE
  5
b29
100
AcDbEntity
  8
0
370
    20
100
AcDbLine
 10
73.175000
 20
99.425000
 11
73.175000
 21
75.625000
  0
LINE
  5
b2c
100
AcDbEntity
  8
0
370
    20
100
AcDbLine
 10
72.150000
 20
124.725000
 11
73.175000
 21
124.725000
  0
LINE
  5
b2f
100
AcDbEntity
  8
0
370
    20
100
AcDbLine
 10
72.150000
 20
75.625000
 11
73.175000
 21
75.625000
  0
LINE
  5
b32
100
AcDbEntity
  8
0
370
    20
100
AcDbLine
 10
91.650000
 20
124.850000
 11
91.650000
 21
75.350000
  0
LINE
  5
b35
100
AcDbEntity
  8
0
370
    20
100
AcDbLine
 10
92.675000
 20
124.850000
 11
92.675000
 21
75.350000
  0
LINE
  5
b38
100
AcDbEntity
  8
0
370
    20
100
AcDbLine
 10
91.650000
 20
124.850000
 11
92.675000
 21
124.850000
  0
LINE
  5
b3b
100
AcDbEntity
  8
0
370
    20
100
AcDbLine
 10
91.650000
 20
75.350000
 11
92.675000
 21
75.350000
  0
LINE
  5
b3e
100
AcDbEntity
  8
0
370
    20
100
AcDbLine
 10
81.950000
 20
105.600000
 11
81.950000
 21
125.475000
  0
LINE
  5
b41
100
AcDbEntity
  8
0
370
    20
100
AcDbLine
 10
81.950000
 20
104.125000
 11
81.950000
 21
98.925000
  0
LINE
  5
b44
100
AcDbEntity
  8
0
370
    20
100
AcDbLine
 10
81.950000
 20
97.475000
 11
81.950000
 21
75.975000
  0
LINE
  5
b47
100
AcDbEntity
  8
0
370
    20
100
AcDbLine
 10
82.975000
 20
106.150000
 11
82.975000
 21
125.475000
  0
LINE
  5
b4a
100
AcDbEntity
  8
0
370
    20
100
AcDbLine
 10
82.975000
 20
104.750000
 11
82.975000
 21
98.375000
  0
LINE
  5
b4d
100
AcDbEntity
  8
0
370
    20
100
AcDbLine
 10
82.975000
 20
97.000000
 11
82.975000
 21
75.975000
  0
LINE
  5
b50
100
AcDbEntity
  8
0
370
    20
100
AcDbLine
 10
81.950000
 20
125.475000
 11
82.975000
 21
125.475000
  0
LINE
  5
b53
100
AcDbEntity
  8
0
370
    20
100
AcDbLine
 10
81.950000
 20
75.975000
 11
82.975000
 21
75.975000
  0
LINE
  5
b56
100
AcDbEntity
  8
0
370
    20
100
AcDbLine
 10
76.825000
 20
101.450000
 11
75.825000
 21
100.925000
  0
LINE
  5
b59
100
AcDbEntity
  8
0
370
    20
100
AcDbLine
 10
75.575000
 20
100.800000
 11
34.700000
 21
79.325000
  0
LINE
  5
b5c
100
AcDbEntity
  8
0
370
    20
100
AcDbLine
 10
75.500000
 20
100.675000
 11
79.150000
 21
102.675000
  0
LINE
  5
b5f
100
AcDbEntity
  8
0
370
    20
100
AcDbLine
 10
79.225000
 20
102.725000
 11
114.550000
 21
121.250000
  0
LINE
  5
b62
100
AcDbEntity
  8
0
370
    20
100
AcDbLine
 10
74.450000
 20
101.625000
 11
34.400000
 21
80.575000
  0
LINE
  5
b65
100
AcDbEntity
  8
0
370
    20
100
AcDbLine
 10
74.375000
 20
101.575000
 11
75.200000
 21
102.000000
  0
LINE
  5
b68
100
AcDbEntity
  8
0
370
    20
100
AcDbLine
 10
75.325000
 20
102.075000
 11
114.250000
 21
122.500000
  0
LINE
  5
b6b
100
AcDbEntity
  8
0
370
    20
100
AcDbLine
 10
114.200000
 20
81.200000
 11
77.525000
 21
99.775000
  0
LINE
  5
b6e
100
AcDbEntity
  8
0
370
    20
100
AcDbLine
 10
77.650000
 20
99.700000
 11
76.750000
 21
100.175000
  0
LINE
  5
b71
100
AcDbEntity
  8
0
370
    20
100
AcDbLine
 10
114.800000
 20
82.250000
 11
83.275000
 21
98.325000
  0
LINE
  5
b74
100
AcDbEntity
  8
0
370
    20
100
AcDbLine
 10
83.275000
 20
98.300000
 11
82.100000
 21
98.900000
  0
LINE
  5
b77
100
AcDbEntity
  8
0
370
    20
100
AcDbLine
 10
82.100000
 20
98.950000
 11
79.100000
 21
100.425000
  0
LINE
  5
b7a
100
AcDbEntity
  8
0
370
    20
100
AcDbLine
 10
79.175000
 20
100.375000
 11
78.125000
 21
100.900000
  0
LINE
  5
b7d
100
AcDbEntity
  8
0
370
    20
100
AcDbLine
 10
78.250000
 20
100.825000
 11
76.825000
 21
101.550000
  0
LINE
  5
b80
100
AcDbEntity
  8
0
370
    20
100
AcDbLine
 10
76.875000
 20
100.125000
 11
75.525000
 21
100.800000
  0
LINE
  5
b83
100
AcDbEntity
  8
0
370
    20
100
AcDbLine
 10
74.300000
 20
101.450000
 11
35.725000
 21
120.925000
  0
LINE
  5
b86
100
AcDbEntity
  8
0
370
    20
100
AcDbLine
 10
75.350000
 20
102.075000
 11
34.475000
 21
122.800000
  0
HATCH
  5
b89
330
F6
100
AcDbEntity
  8
0
100
AcDbHatch
 10
0.0
 20
0.0
 30
0.0
210
0.0
220
0.0
230
1.0
  2
SOLID
 70
     1
 71
     0
 91
     1
 92
     7
 72
     0
 73
     1
 93
    10
 10
112.825000
 20
120.400000
 10
112.825000
 20
120.175000
 10
112.200000
 20
119.550000
 10
111.375000
 20
119.550000
 10
110.750000
 20
120.175000
 10
110.750000
 20
121.000000
 10
111.375000
 20
121.625000
 10
112.200000
 20
121.625000
 10
112.825000
 20
121.000000
 10
112.825000
 20
120.575000
 97
     1
330
b8c
 75
     0
 76
     1
 47
0.651316
 98
     1
 10
0.0
 20
0.0
  0
LWPOLYLINE
  5
b8c
330
F6
100
AcDbEntity
  8
0
100
AcDbPolyline
 90
    10
 70
     1
 43
0.200000
 10
112.825000
 20
120.400000
 10
112.825000
 20
120.175000
 10
112.200000
 20
119.550000
 10
111.375000
 20
119.550000
 10
110.750000
 20
120.175000
 10
110.750000
 20
121.000000
 10
111.375000
 20
121.625000
 10
112.200000
 20
121.625000
 10
112.825000
 20
121.000000
 10
112.825000
 20
120.575000
  0
CIRCLE
  5
ba3
100
AcDbEntity
  8
0
370
    20
100
AcDbCircle
 10
111.800000
 20
120.575000
 40
1.025000
  0
HATCH
  5
ba6
330
F6
100
AcDbEntity
  8
0
100
AcDbHatch
 10
0.0
 20
0.0
 30
0.0
210
0.0
220
0.0
230
1.0
  2
SOLID
 70
     1
 71
     0
 91
     1
 92
     7
 72
     0
 73
     1
 93
    10
 10
38.750000
 20
120.225000
 10
38.750000
 20
120.000000
 10
38.125000
 20
119.375000
 10
37.300000
 20
119.375000
 10
36.675000
 20
120.000000
 10
36.675000
 20
120.825000
 10
37.300000
 20
121.450000
 10
38.125000
 20
121.450000
 10
38.750000
 20
120.825000
 10
38.750000
 20
120.400000
 97
     1
330
ba9
 75
     0
 76
     1
 47
0.651316
 98
     1
 10
0.0
 20
0.0
  0
LWPOLYLINE
  5
ba9
330
F6
100
AcDbEntity
  8
0
100
AcDbPolyline
 90
    10
 70
     1
 43
0.200000
 10
38.750000
 20
120.225000
 10
38.750000
 20
120.000000
 10
38.125000
 20
119.375000
 10
37.300000
 20
119.375000
 10
36.675000
 20
120.000000
 10
36.675000
 20
120.825000
 10
37.300000
 20
121.450000
 10
38.125000
 20
121.450000
 10
38.750000
 20
120.825000
 10
38.750000
 20
120.400000
  0
CIRCLE
  5
bc0
100
AcDbEntity
  8
0
370
    20
100
AcDbCircle
 10
37.725000
 20
120.400000
 40
1.025000
  0
HATCH
  5
bc3
330
F6
100
AcDbEntity
  8
0
100
AcDbHatch
 10
0.0
 20
0.0
 30
0.0
210
0.0
220
0.0
230
1.0
  2
SOLID
 70
     1
 71
     0
 91
     1
 92
     7
 72
     0
 73
     1
 93
    10
 10
38.750000
 20
123.975000
 10
38.750000
 20
123.750000
 10
38.125000
 20
123.125000
 10
37.300000
 20
123.125000
 10
36.675000
 20
123.750000
 10
36.675000
 20
124.575000
 10
37.300000
 20
125.200000
 10
38.125000
 20
125.200000
 10
38.750000
 20
124.575000
 10
38.750000
 20
124.150000
 97
     1
330
bc6
 75
     0
 76
     1
 47
0.651316
 98
     1
 10
0.0
 20
0.0
  0
LWPOLYLINE
  5
bc6
330
F6
100
AcDbEntity
  8
0
100
AcDbPolyline
 90
    10
 70
     1
 43
0.200000
 10
38.750000
 20
123.975000
 10
38.750000
 20
123.750000
 10
38.125000
 20
123.125000
 10
37.300000
 20
123.125000
 10
36.675000
 20
123.750000
 10
36.675000
 20
124.575000
 10
37.300000
 20
125.200000
 10
38.125000
 20
125.200000
 10
38.750000
 20
124.575000
 10
38.750000
 20
124.150000
  0
CIRCLE
  5
bdd
100
AcDbEntity
  8
0
370
    20
100
AcDbCircle
 10
37.725000
 20
124.150000
 40
1.025000
  0
HATCH
  5
be0
330
F6
100
AcDbEntity
  8
0
100
AcDbHatch
 10
0.0
 20
0.0
 30
0.0
210
0.0
220
0.0
230
1.0
  2
SOLID
 70
     1
 71
     0
 91
     1
 92
     7
 72
     0
 73
     1
 93
    10
 10
62.200000
 20
124.150000
 10
62.200000
 20
123.925000
 10
61.575000
 20
123.300000
 10
60.750000
 20
123.300000
 10
60.125000
 20
123.925000
 10
60.125000
 20
124.750000
 10
60.750000
 20
125.375000
 10
61.575000
 20
125.375000
 10
62.200000
 20
124.750000
 10
62.200000
 20
124.325000
 97
     1
330
be3
 75
     0
 76
     1
 47
0.651316
 98
     1
 10
0.0
 20
0.0
  0
LWPOLYLINE
  5
be3
330
F6
100
AcDbEntity
  8
0
100
AcDbPolyline
 90
    10
 70
     1
 43
0.200000
 10
62.200000
 20
124.150000
 10
62.200000
 20
123.925000
 10
61.575000
 20
123.300000
 10
60.750000
 20
123.300000
 10
60.125000
 20
123.925000
 10
60.125000
 20
124.750000
 10
60.750000
 20
125.375000
 10
61.575000
 20
125.375000
 10
62.200000
 20
124.750000
 10
62.200000
 20
124.325000
  0
CIRCLE
  5
bfa
100
AcDbEntity
  8
0
370
    20
100
AcDbCircle
 10
61.175000
 20
124.325000
 40
1.025000
  0
HATCH
  5
bfd
330
F6
100
AcDbEntity
  8
0
100
AcDbHatch
 10
0.0
 20
0.0
 30
0.0
210
0.0
220
0.0
230
1.0
  2
SOLID
 70
     1
 71
     0
 91
     1
 92
     7
 72
     0
 73
     1
 93
    10
 10
73.600000
 20
124.150000
 10
73.600000
 20
123.925000
 10
72.975000
 20
123.300000
 10
72.150000
 20
123.300000
 10
71.525000
 20
123.925000
 10
71.525000
 20
124.750000
 10
72.150000
 20
125.375000
 10
72.975000
 20
125.375000
 10
73.600000
 20
124.750000
 10
73.600000
 20
124.325000
 97
     1
330
c00
 75
     0
 76
     1
 47
0.651316
 98
     1
 10
0.0
 20
0.0
  0
LWPOLYLINE
  5
c00
330
F6
100
AcDbEntity
  8
0
100
AcDbPolyline
 90
    10
 70
     1
 43
0.200000
 10
73.600000
 20
124.150000
 10
73.600000
 20
123.925000
 10
72.975000
 20
123.300000
 10
72.150000
 20
123.300000
 10
71.525000
 20
123.925000
 10
71.525000
 20
124.750000
 10
72.150000
 20
125.375000
 10
72.975000
 20
125.375000
 10
73.600000
 20
124.750000
 10
73.600000
 20
124.325000
  0
CIRCLE
  5
c17
100
AcDbEntity
  8
0
370
    20
100
AcDbCircle
 10
72.575000
 20
124.325000
 40
1.025000
  0
HATCH
  5
c1a
330
F6
100
AcDbEntity
  8
0
100
AcDbHatch
 10
0.0
 20
0.0
 30
0.0
210
0.0
220
0.0
230
1.0
  2
SOLID
 70
     1
 71
     0
 91
     1
 92
     7
 72
     0
 73
     1
 93
    10
 10
83.750000
 20
124.925000
 10
83.750000
 20
124.700000
 10
83.125000
 20
124.075000
 10
82.300000
 20
124.075000
 10
81.675000
 20
124.700000
 10
81.675000
 20
125.525000
 10
82.300000
 20
126.150000
 10
83.125000
 20
126.150000
 10
83.750000
 20
125.525000
 10
83.750000
 20
125.100000
 97
     1
330
c1d
 75
     0
 76
     1
 47
0.651316
 98
     1
 10
0.0
 20
0.0
  0
LWPOLYLINE
  5
c1d
330
F6
100
AcDbEntity
  8
0
100
AcDbPolyline
 90
    10
 70
     1
 43
0.200000
 10
83.750000
 20
124.925000
 10
83.750000
 20
124.700000
 10
83.125000
 20
124.075000
 10
82.300000
 20
124.075000
 10
81.675000
 20
124.700000
 10
81.675000
 20
125.525000
 10
82.300000
 20
126.150000
 10
83.125000
 20
126.150000
 10
83.750000
 20
125.525000
 10
83.750000
 20
125.100000
  0
CIRCLE
  5
c34
100
AcDbEntity
  8
0
370
    20
100
AcDbCircle
 10
82.725000
 20
125.100000
 40
1.025000
  0
HATCH
  5
c37
330
F6
100
AcDbEntity
  8
0
100
AcDbHatch
 10
0.0
 20
0.0
 30
0.0
210
0.0
220
0.0
230
1.0
  2
SOLID
 70
     1
 71
     0
 91
     1
 92
     7
 72
     0
 73
     1
 93
    10
 10
93.275000
 20
124.450000
 10
93.275000
 20
124.225000
 10
92.650000
 20
123.600000
 10
91.825000
 20
123.600000
 10
91.200000
 20
124.225000
 10
91.200000
 20
125.050000
 10
91.825000
 20
125.675000
 10
92.650000
 20
125.675000
 10
93.275000
 20
125.050000
 10
93.275000
 20
124.625000
 97
     1
330
c3a
 75
     0
 76
     1
 47
0.651316
 98
     1
 10
0.0
 20
0.0
  0
LWPOLYLINE
  5
c3a
330
F6
100
AcDbEntity
  8
0
100
AcDbPolyline
 90
    10
 70
     1
 43
0.200000
 10
93.275000
 20
124.450000
 10
93.275000
 20
124.225000
 10
92.650000
 20
123.600000
 10
91.825000
 20
123.600000
 10
91.200000
 20
124.225000
 10
91.200000
 20
125.050000
 10
91.825000
 20
125.675000
 10
92.650000
 20
125.675000
 10
93.275000
 20
125.050000
 10
93.275000
 20
124.625000
  0
CIRCLE
  5
c51
100
AcDbEntity
  8
0
370
    20
100
AcDbCircle
 10
92.250000
 20
124.625000
 40
1.025000
  0
HATCH
  5
c54
330
F6
100
AcDbEntity
  8
0
100
AcDbHatch
 10
0.0
 20
0.0
 30
0.0
210
0.0
220
0.0
230
1.0
  2
SOLID
 70
     1
 71
     0
 91
     1
 92
     7
 72
     0
 73
     1
 93
    10
 10
112.975000
 20
124.450000
 10
112.975000
 20
124.225000
 10
112.350000
 20
123.600000
 10
111.525000
 20
123.600000
 10
110.900000
 20
124.225000
 10
110.900000
 20
125.050000
 10
111.525000
 20
125.675000
 10
112.350000
 20
125.675000
 10
112.975000
 20
125.050000
 10
112.975000
 20
124.625000
 97
     1
330
c57
 75
     0
 76
     1
 47
0.651316
 98
     1
 10
0.0
 20
0.0
  0
LWPOLYLINE
  5
c57
330
F6
100
AcDbEntity
  8
0
100
AcDbPolyline
 90
    10
 70
     1
 43
0.200000
 10
112.975000
 20
124.450000
 10
112.975000
 20
124.225000
 10
112.350000
 20
123.600000
 10
111.525000
 20
123.600000
 10
110.900000
 20
124.225000
 10
110.900000
 20
125.050000
 10
111.525000
 20
125.675000
 10
112.350000
 20
125.675000
 10
112.975000
 20
125.050000
 10
112.975000
 20
124.625000
  0
CIRCLE
  5
c6e
100
AcDbEntity
  8
0
370
    20
100
AcDbCircle
 10
111.950000
 20
124.625000
 40
1.025000
  0
HATCH
  5
c71
330
F6
100
AcDbEntity
  8
0
100
AcDbHatch
 10
0.0
 20
0.0
 30
0.0
210
0.0
220
0.0
230
1.0
  2
SOLID
 70
     1
 71
     0
 91
     1
 92
     7
 72
     0
 73
     1
 93
    10
 10
112.650000
 20
83.200000
 10
112.650000
 20
82.975000
 10
112.025000
 20
82.350000
 10
111.200000
 20
82.350000
 10
110.575000
 20
82.975000
 10
110.575000
 20
83.800000
 10
111.200000
 20
84.425000
 10
112.025000
 20
84.425000
 10
112.650000
 20
83.800000
 10
112.650000
 20
83.375000
 97
     1
330
c74
 75
     0
 76
     1
 47
0.651316
 98
     1
 10
0.0
 20
0.0
  0
LWPOLYLINE
  5
c74
330
F6
100
AcDbEntity
  8
0
100
AcDbPolyline
 90
    10
 70
     1
 43
0.200000
 10
112.650000
 20
83.200000
 10
112.650000
 20
82.975000
 10
112.025000
 20
82.350000
 10
111.200000
 20
82.350000
 10
110.575000
 20
82.975000
 10
110.575000
 20
83.800000
 10
111.200000
 20
84.425000
 10
112.025000
 20
84.425000
 10
112.650000
 20
83.800000
 10
112.650000
 20
83.375000
  0
CIRCLE
  5
c8b
100
AcDbEntity
  8
0
370
    20
100
AcDbCircle
 10
111.625000
 20
83.375000
 40
1.025000
  0
HATCH
  5
c8e
330
F6
100
AcDbEntity
  8
0
100
AcDbHatch
 10
0.0
 20
0.0
 30
0.0
210
0.0
220
0.0
230
1.0
  2
SOLID
 70
     1
 71
     0
 91
     1
 92
     7
 72
     0
 73
     1
 93
    10
 10
38.750000
 20
81.475000
 10
38.750000
 20
81.250000
 10
38.125000
 20
80.625000
 10
37.300000
 20
80.625000
 10
36.675000
 20
81.250000
 10
36.675000
 20
82.075000
 10
37.300000
 20
82.700000
 10
38.125000
 20
82.700000
 10
38.750000
 20
82.075000
 10
38.750000
 20
81.650000
 97
     1
330
c91
 75
     0
 76
     1
 47
0.651316
 98
     1
 10
0.0
 20
0.0
  0
LWPOLYLINE
  5
c91
330
F6
100
AcDbEntity
  8
0
100
AcDbPolyline
 90
    10
 70
     1
 43
0.200000
 10
38.750000
 20
81.475000
 10
38.750000
 20
81.250000
 10
38.125000
 20
80.625000
 10
37.300000
 20
80.625000
 10
36.675000
 20
81.250000
 10
36.675000
 20
82.075000
 10
37.300000
 20
82.700000
 10
38.125000
 20
82.700000
 10
38.750000
 20
82.075000
 10
38.750000
 20
81.650000
  0
CIRCLE
  5
ca8
100
AcDbEntity
  8
0
370
    20
100
AcDbCircle
 10
37.725000
 20
81.650000
 40
1.025000
  0
LINE
  5
cab
100
AcDbEntity
  8
0
370
    20
100
AcDbLine
 10
34.850000
 20
171.575000
 11
34.850000
 21
170.550000
  0
LINE
  5
cae
100
AcDbEntity
  8
0
370
    20
100
AcDbLine
 10
35.475000
 20
170.250000
 11
35.150000
 21
169.475000
  0
LINE
  5
cb1
100
AcDbEntity
  8
0
370
    20
100
AcDbLine
 10
34.375000
 20
127.975000
 11
35.325000
 21
126.725000
  0
LINE
  5
cb4
100
AcDbEntity
  8
0
370
    20
100
AcDbLine
 10
114.700000
 20
130.175000
 11
114.375000
 21
129.375000
  0
LINE
  5
cb7
100
AcDbEntity
  8
0
370
    20
100
AcDbLine
 10
114.700000
 20
121.100000
 11
114.225000
 21
122.350000
  0
LWPOLYLINE
  5
cba
100
AcDbEntity
  8
0
100
AcDbPolyline
 90
     4
 70
     1
 43
0.200000
 10
35.475000
 20
125.175000
 10
115.000000
 20
125.175000
 10
115.000000
 20
123.925000
 10
35.475000
 20
123.925000
  0
HATCH
  5
cc5
330
F6
100
AcDbEntity
  8
0
100
AcDbHatch
 10
0.0
 20
0.0
 30
0.0
210
0.0
220
0.0
230
1.0
  2
SOLID
 70
     1
 71
     0
 91
     1
 92
     7
 72
     0
 73
     1
 93
    10
 10
62.025000
 20
108.350000
 10
62.025000
 20
108.125000
 10
61.400000
 20
107.500000
 10
60.575000
 20
107.500000
 10
59.950000
 20
108.125000
 10
59.950000
 20
108.950000
 10
60.575000
 20
109.575000
 10
61.400000
 20
109.575000
 10
62.025000
 20
108.950000
 10
62.025000
 20
108.525000
 97
     1
330
cc8
 75
     0
 76
     1
 47
0.651316
 98
     1
 10
0.0
 20
0.0
  0
LWPOLYLINE
  5
cc8
330
F6
100
AcDbEntity
  8
0
100
AcDbPolyline
 90
    10
 70
     1
 43
0.200000
 10
62.025000
 20
108.350000
 10
62.025000
 20
108.125000
 10
61.400000
 20
107.500000
 10
60.575000
 20
107.500000
 10
59.950000
 20
108.125000
 10
59.950000
 20
108.950000
 10
60.575000
 20
109.575000
 10
61.400000
 20
109.575000
 10
62.025000
 20
108.950000
 10
62.025000
 20
108.525000
  0
CIRCLE
  5
cdf
100
AcDbEntity
  8
0
370
    20
100
AcDbCircle
 10
61.000000
 20
108.525000
 40
1.025000
  0
HATCH
  5
ce2
330
F6
100
AcDbEntity
  8
0
100
AcDbHatch
 10
0.0
 20
0.0
 30
0.0
210
0.0
220
0.0
230
1.0
  2
SOLID
 70
     1
 71
     0
 91
     1
 92
     7
 72
     0
 73
     1
 93
    10
 10
93.275000
 20
109.775000
 10
93.275000
 20
109.550000
 10
92.650000
 20
108.925000
 10
91.825000
 20
108.925000
 10
91.200000
 20
109.550000
 10
91.200000
 20
110.375000
 10
91.825000
 20
111.000000
 10
92.650000
 20
111.000000
 10
93.275000
 20
110.375000
 10
93.275000
 20
109.950000
 97
     1
330
ce5
 75
     0
 76
     1
 47
0.651316
 98
     1
 10
0.0
 20
0.0
  0
LWPOLYLINE
  5
ce5
330
F6
100
AcDbEntity
  8
0
100
AcDbPolyline
 90
    10
 70
     1
 43
0.200000
 10
93.275000
 20
109.775000
 10
93.275000
 20
109.550000
 10
92.650000
 20
108.925000
 10
91.825000
 20
108.925000
 10
91.200000
 20
109.550000
 10
91.200000
 20
110.375000
 10
91.825000
 20
111.000000
 10
92.650000
 20
111.000000
 10
93.275000
 20
110.375000
 10
93.275000
 20
109.950000
  0
CIRCLE
  5
cfc
100
AcDbEntity
  8
0
370
    20
100
AcDbCircle
 10
92.250000
 20
109.950000
 40
1.025000
  0
HATCH
  5
cff
330
F6
100
AcDbEntity
  8
0
100
AcDbHatch
 10
0.0
 20
0.0
 30
0.0
210
0.0
220
0.0
230
1.0
  2
SOLID
 70
     1
 71
     0
 91
     1
 92
     7
 72
     0
 73
     1
 93
    10
 10
93.125000
 20
93.200000
 10
93.125000
 20
92.975000
 10
92.500000
 20
92.350000
 10
91.675000
 20
92.350000
 10
91.050000
 20
92.975000
 10
91.050000
 20
93.800000
 10
91.675000
 20
94.425000
 10
92.500000
 20
94.425000
 10
93.125000
 20
93.800000
 10
93.125000
 20
93.375000
 97
     1
330
d02
 75
     0
 76
     1
 47
0.651316
 98
     1
 10
0.0
 20
0.0
  0
LWPOLYLINE
  5
d02
330
F6
100
AcDbEntity
  8
0
100
AcDbPolyline
 90
    10
 70
     1
 43
0.200000
 10
93.125000
 20
93.200000
 10
93.125000
 20
92.975000
 10
92.500000
 20
92.350000
 10
91.675000
 20
92.350000
 10
91.050000
 20
92.975000
 10
91.050000
 20
93.800000
 10
91.675000
 20
94.425000
 10
92.500000
 20
94.425000
 10
93.125000
 20
93.800000
 10
93.125000
 20
93.375000
  0
CIRCLE
  5
d19
100
AcDbEntity
  8
0
370
    20
100
AcDbCircle
 10
92.100000
 20
93.375000
 40
1.025000
  0
HATCH
  5
d1c
330
F6
100
AcDbEntity
  8
0
100
AcDbHatch
 10
0.0
 20
0.0
 30
0.0
210
0.0
220
0.0
230
1.0
  2
SOLID
 70
     1
 71
     0
 91
     1
 92
     7
 72
     0
 73
     1
 93
    10
 10
62.200000
 20
94.150000
 10
62.200000
 20
93.925000
 10
61.575000
 20
93.300000
 10
60.750000
 20
93.300000
 10
60.125000
 20
93.925000
 10
60.125000
 20
94.750000
 10
60.750000
 20
95.375000
 10
61.575000
 20
95.375000
 10
62.200000
 20
94.750000
 10
62.200000
 20
94.325000
 97
     1
330
d1f
 75
     0
 76
     1
 47
0.651316
 98
     1
 10
0.0
 20
0.0
  0
LWPOLYLINE
  5
d1f
330
F6
100
AcDbEntity
  8
0
100
AcDbPolyline
 90
    10
 70
     1
 43
0.200000
 10
62.200000
 20
94.150000
 10
62.200000
 20
93.925000
 10
61.575000
 20
93.300000
 10
60.750000
 20
93.300000
 10
60.125000
 20
93.925000
 10
60.125000
 20
94.750000
 10
60.750000
 20
95.375000
 10
61.575000
 20
95.375000
 10
62.200000
 20
94.750000
 10
62.200000
 20
94.325000
  0
CIRCLE
  5
d36
100
AcDbEntity
  8
0
370
    20
100
AcDbCircle
 10
61.175000
 20
94.325000
 40
1.025000
  0
LINE
  5
d39
100
AcDbEntity
  8
0
370
    20
100
AcDbLine
 10
77.650000
 20
123.925000
 11
77.650000
 21
103.125000
  0
LINE
  5
d3c
100
AcDbEntity
  8
0
370
    20
100
AcDbLine
 10
34.225000
 20
80.475000
 11
34.700000
 21
79.225000
  0
LINE
  5
d3f
100
AcDbEntity
  8
0
370
    20
100
AcDbLine
 10
114.850000
 20
82.275000
 11
114.100000
 21
81.225000
  0
LWPOLYLINE
  5
d42
100
AcDbEntity
  8
0
100
AcDbPolyline
 90
     3
 70
     0
 43
0.200000
 10
97.425000
 20
142.925000
 10
93.325000
 20
141.475000
 10
94.750000
 20
142.500000
  0
LWPOLYLINE
  5
d4b
100
AcDbEntity
  8
0
100
AcDbPolyline
 90
     3
 70
     0
 43
0.200000
 10
96.800000
 20
150.225000
 10
92.700000
 20
148.775000
 10
94.125000
 20
149.800000
  0
LINE
  5
d54
100
AcDbEntity
  8
0
370
    20
100
AcDbLine
 10
34.650000
 20
103.950000
 11
117.600000
 21
103.950000
  0
LINE
  5
d57
100
AcDbEntity
  8
0
370
    20
100
AcDbLine
 10
35.950000
 20
120.750000
 11
34.375000
 21
121.575000
  0
LINE
  5
d5a
100
AcDbEntity
  8
0
370
    20
100
AcDbLine
 10
34.575000
 20
122.725000
 11
34.475000
 21
121.475000
  0
LINE
  5
d5d
100
AcDbEntity
  8
0
370
    20
100
AcDbLine
 10
81.875000
 20
177.350000
 11
86.875000
 21
182.500000
  0
POINT
  5
d60
100
AcDbEntity
  8
0
100
AcDbPoint
 10
69.050000
 20
51.625000
  0
POINT
  5
d63
100
AcDbEntity
  8
0
100
AcDbPoint
 10
69.675000
 20
53.875000
  0
POINT
  5
d66
100
AcDbEntity
  8
0
100
AcDbPoint
 10
72.350000
 20
52.225000
  0
POINT
  5
d69
100
AcDbEntity
  8
0
100
AcDbPoint
 10
71.525000
 20
51.000000
  0
POINT
  5
d6c
100
AcDbEntity
  8
0
100
AcDbPoint
 10
71.300000
 20
53.450000
  0
POINT
  5
d6f
100
AcDbEntity
  8
0
100
AcDbPoint
 10
69.875000
 20
52.025000
  0
POINT
  5
d72
100
AcDbEntity
  8
0
100
AcDbPoint
 10
73.350000
 20
54.075000
  0
POINT
  5
d75
100
AcDbEntity
  8
0
100
AcDbPoint
 10
73.775000
 20
50.175000
  0
POINT
  5
d78
100
AcDbEntity
  8
0
100
AcDbPoint
 10
71.525000
 20
48.325000
  0
POINT
  5
d7b
100
AcDbEntity
  8
0
100
AcDbPoint
 10
69.475000
 20
50.600000
  0
POINT
  5
d7e
100
AcDbEntity
  8
0
100
AcDbPoint
 10
68.875000
 20
49.350000
  0
POINT
  5
d81
100
AcDbEntity
  8
0
100
AcDbPoint
 10
70.100000
 20
48.550000
  0
POINT
  5
d84
100
AcDbEntity
  8
0
100
AcDbPoint
 10
71.750000
 20
49.775000
  0
POINT
  5
d87
100
AcDbEntity
  8
0
100
AcDbPoint
 10
72.750000
 20
49.975000
  0
POINT
  5
d8a
100
AcDbEntity
  8
0
100
AcDbPoint
 10
73.975000
 20
52.225000
  0
POINT
  5
d8d
100
AcDbEntity
  8
0
100
AcDbPoint
 10
73.975000
 20
48.125000
  0
POINT
  5
d90
100
AcDbEntity
  8
0
100
AcDbPoint
 10
71.125000
 20
47.525000
  0
POINT
  5
d93
100
AcDbEntity
  8
0
100
AcDbPoint
 10
69.475000
 20
47.525000
  0
POINT
  5
d96
100
AcDbEntity
  8
0
100
AcDbPoint
 10
68.650000
 20
46.075000
  0
POINT
  5
d99
100
AcDbEntity
  8
0
100
AcDbPoint
 10
69.675000
 20
44.850000
  0
POINT
  5
d9c
100
AcDbEntity
  8
0
100
AcDbPoint
 10
70.100000
 20
46.300000
  0
POINT
  5
d9f
100
AcDbEntity
  8
0
100
AcDbPoint
 10
72.975000
 20
45.450000
  0
POINT
  5
da2
100
AcDbEntity
  8
0
100
AcDbPoint
 10
71.750000
 20
45.450000
  0
POINT
  5
da5
100
AcDbEntity
  8
0
100
AcDbPoint
 10
72.350000
 20
46.700000
  0
POINT
  5
da8
100
AcDbEntity
  8
0
100
AcDbPoint
 10
73.350000
 20
46.500000
  0
POINT
  5
dab
100
AcDbEntity
  8
0
100
AcDbPoint
 10
74.800000
 20
45.250000
  0
POINT
  5
dae
100
AcDbEntity
  8
0
100
AcDbPoint
 10
74.600000
 20
49.775000
  0
POINT
  5
db1
100
AcDbEntity
  8
0
100
AcDbPoint
 10
73.150000
 20
51.200000
  0
POINT
  5
db4
100
AcDbEntity
  8
0
100
AcDbPoint
 10
72.975000
 20
53.050000
  0
POINT
  5
db7
100
AcDbEntity
  8
0
100
AcDbPoint
 10
71.300000
 20
52.425000
  0
POINT
  5
dba
100
AcDbEntity
  8
0
100
AcDbPoint
 10
70.100000
 20
53.050000
  0
POINT
  5
dbd
100
AcDbEntity
  8
0
100
AcDbPoint
 10
70.100000
 20
54.675000
  0
POINT
  5
dc0
100
AcDbEntity
  8
0
100
AcDbPoint
 10
71.925000
 20
54.500000
  0
POINT
  5
dc3
100
AcDbEntity
  8
0
100
AcDbPoint
 10
70.700000
 20
45.250000
  0
POINT
  5
dc6
100
AcDbEntity
  8
0
100
AcDbPoint
 10
72.525000
 20
48.550000
  0
POINT
  5
dc9
100
AcDbEntity
  8
0
100
AcDbPoint
 10
70.300000
 20
49.975000
  0
POINT
  5
dcc
100
AcDbEntity
  8
0
100
AcDbPoint
 10
69.475000
 20
52.025000
  0
POINT
  5
dcf
100
AcDbEntity
  8
0
100
AcDbPoint
 10
73.975000
 20
53.875000
  0
POINT
  5
dd2
100
AcDbEntity
  8
0
100
AcDbPoint
 10
68.650000
 20
48.325000
  0
LWPOLYLINE
  5
dd5
100
AcDbEntity
  8
0
100
AcDbPolyline
 90
     5
 70
     0
 10
42.825000
 20
56.250000
 10
52.650000
 20
55.950000
 10
61.100000
 20
56.100000
 10
70.000000
 20
56.100000
 10
74.950000
 20
56.100000
  0
LINE
  5
de2
100
AcDbEntity
  8
0
370
     0
100
AcDbLine
 10
78.750000
 20
55.950000
 11
79.100000
 21
55.975000
  0
LWPOLYLINE
  5
de5
100
AcDbEntity
  8
0
100
AcDbPolyline
 90
     5
 70
     0
 10
79.425000
 20
55.975000
 10
88.750000
 20
56.250000
 10
98.125000
 20
56.100000
 10
109.075000
 20
56.875000
 10
114.700000
 20
57.175000
  0
LINE
  5
df2
100
AcDbEntity
  8
0
370
     0
100
AcDbLine
 10
33.450000
 20
77.050000
 11
36.575000
 21
77.050000
  0
LINE
  5
df5
100
AcDbEntity
  8
0
370
     0
100
AcDbLine
 10
39.225000
 20
76.875000
 11
45.950000
 21
76.875000
  0
LINE
  5
df8
100
AcDbEntity
  8
0
370
     0
100
AcDbLine
 10
49.225000
 20
76.875000
 11
57.025000
 21
76.875000
  0
LINE
  5
dfb
100
AcDbEntity
  8
0
370
     0
100
AcDbLine
 10
62.350000
 20
76.875000
 11
71.575000
 21
76.875000
  0
LINE
  5
dfe
100
AcDbEntity
  8
0
370
     0
100
AcDbLine
 10
73.900000
 20
76.875000
 11
75.000000
 21
76.875000
  0
LINE
  5
e01
100
AcDbEntity
  8
0
370
     0
100
AcDbLine
 10
79.375000
 20
76.875000
 11
81.250000
 21
76.875000
  0
LINE
  5
e04
100
AcDbEntity
  8
0
370
     0
100
AcDbLine
 10
83.600000
 20
76.725000
 11
89.075000
 21
76.725000
  0
LINE
  5
e07
100
AcDbEntity
  8
0
370
     0
100
AcDbLine
 10
89.700000
 20
76.575000
 11
91.400000
 21
76.575000
  0
LINE
  5
e0a
100
AcDbEntity
  8
0
370
     0
100
AcDbLine
 10
93.275000
 20
76.875000
 11
98.450000
 21
76.875000
  0
LINE
  5
e0d
100
AcDbEntity
  8
0
370
     0
100
AcDbLine
 10
99.700000
 20
77.050000
 11
107.025000
 21
77.050000
  0
LINE
  5
e10
100
AcDbEntity
  8
0
370
     0
100
AcDbLine
 10
108.450000
 20
77.050000
 11
110.950000
 21
77.050000
  0
LINE
  5
e13
100
AcDbEntity
  8
0
370
     0
100
AcDbLine
 10
112.975000
 20
77.050000
 11
115.475000
 21
77.050000
  0
LINE
  5
e16
100
AcDbEntity
  8
0
370
     0
100
AcDbLine
 10
35.150000
 20
74.075000
 11
40.950000
 21
74.075000
  0
LINE
  5
e19
100
AcDbEntity
  8
0
370
     0
100
AcDbLine
 10
42.825000
 20
73.925000
 11
51.100000
 21
73.925000
  0
LINE
  5
e1c
100
AcDbEntity
  8
0
370
     0
100
AcDbLine
 10
55.950000
 20
73.925000
 11
64.225000
 21
73.925000
  0
LINE
  5
e1f
100
AcDbEntity
  8
0
370
     0
100
AcDbLine
 10
67.025000
 20
73.600000
 11
74.225000
 21
73.600000
  0
LINE
  5
e22
100
AcDbEntity
  8
0
370
     0
100
AcDbLine
 10
80.950000
 20
73.600000
 11
87.650000
 21
73.600000
  0
LINE
  5
e25
100
AcDbEntity
  8
0
370
     0
100
AcDbLine
 10
91.100000
 20
73.600000
 11
98.900000
 21
73.600000
  0
LINE
  5
e28
100
AcDbEntity
  8
0
370
     0
100
AcDbLine
 10
100.950000
 20
73.600000
 11
108.750000
 21
73.600000
  0
LINE
  5
e2b
100
AcDbEntity
  8
0
370
     0
100
AcDbLine
 10
112.025000
 20
73.125000
 11
115.950000
 21
73.125000
  0
LINE
  5
e2e
100
AcDbEntity
  8
0
370
     0
100
AcDbLine
 10
37.200000
 20
69.225000
 11
46.250000
 21
69.225000
  0
LINE
  5
e31
100
AcDbEntity
  8
0
370
     0
100
AcDbLine
 10
48.125000
 20
69.225000
 11
58.125000
 21
69.225000
  0
LINE
  5
e34
100
AcDbEntity
  8
0
370
     0
100
AcDbLine
 10
60.325000
 20
69.375000
 11
70.150000
 21
69.375000
  0
LINE
  5
e37
100
AcDbEntity
  8
0
370
     0
100
AcDbLine
 10
72.350000
 20
69.375000
 11
75.000000
 21
69.375000
  0
LINE
  5
e3a
100
AcDbEntity
  8
0
370
     0
100
AcDbLine
 10
80.000000
 20
69.225000
 11
89.075000
 21
69.225000
  0
LINE
  5
e3d
100
AcDbEntity
  8
0
370
     0
100
AcDbLine
 10
90.950000
 20
69.075000
 11
102.650000
 21
69.075000
  0
LINE
  5
e40
100
AcDbEntity
  8
0
370
     0
100
AcDbLine
 10
104.525000
 20
69.075000
 11
110.475000
 21
69.075000
  0
LINE
  5
e43
100
AcDbEntity
  8
0
370
     0
100
AcDbLine
 10
111.875000
 20
69.075000
 11
115.475000
 21
69.075000
  0
LINE
  5
e46
100
AcDbEntity
  8
0
370
     0
100
AcDbLine
 10
40.475000
 20
65.325000
 11
50.950000
 21
65.325000
  0
LINE
  5
e49
100
AcDbEntity
  8
0
370
     0
100
AcDbLine
 10
54.375000
 20
65.175000
 11
62.500000
 21
65.175000
  0
LINE
  5
e4c
100
AcDbEntity
  8
0
370
     0
100
AcDbLine
 10
65.775000
 20
65.000000
 11
73.900000
 21
65.000000
  0
LINE
  5
e4f
100
AcDbEntity
  8
0
370
     0
100
AcDbLine
 10
80.625000
 20
64.850000
 11
88.750000
 21
64.850000
  0
LINE
  5
e52
100
AcDbEntity
  8
0
370
     0
100
AcDbLine
 10
93.900000
 20
64.700000
 11
105.475000
 21
64.700000
  0
LINE
  5
e55
100
AcDbEntity
  8
0
370
     0
100
AcDbLine
 10
108.450000
 20
64.550000
 11
112.825000
 21
64.550000
  0
LINE
  5
e58
100
AcDbEntity
  8
0
370
     0
100
AcDbLine
 10
39.700000
 20
61.875000
 11
47.200000
 21
61.875000
  0
LINE
  5
e5b
100
AcDbEntity
  8
0
370
     0
100
AcDbLine
 10
51.575000
 20
61.875000
 11
60.775000
 21
61.875000
  0
LINE
  5
e5e
100
AcDbEntity
  8
0
370
     0
100
AcDbLine
 10
65.150000
 20
61.725000
 11
72.025000
 21
61.725000
  0
LINE
  5
e61
100
AcDbEntity
  8
0
370
     0
100
AcDbLine
 10
73.450000
 20
61.725000
 11
74.850000
 21
61.725000
  0
LINE
  5
e64
100
AcDbEntity
  8
0
370
     0
100
AcDbLine
 10
79.700000
 20
61.725000
 11
85.150000
 21
61.725000
  0
LINE
  5
e67
100
AcDbEntity
  8
0
370
     0
100
AcDbLine
 10
87.200000
 20
61.725000
 11
96.725000
 21
61.725000
  0
LINE
  5
e6a
100
AcDbEntity
  8
0
370
     0
100
AcDbLine
 10
99.850000
 20
61.725000
 11
104.075000
 21
61.725000
  0
LINE
  5
e6d
100
AcDbEntity
  8
0
370
     0
100
AcDbLine
 10
105.775000
 20
61.875000
 11
115.000000
 21
61.875000
  0
LINE
  5
e70
100
AcDbEntity
  8
0
370
     0
100
AcDbLine
 10
42.500000
 20
58.925000
 11
50.950000
 21
58.925000
  0
LINE
  5
e73
100
AcDbEntity
  8
0
370
     0
100
AcDbLine
 10
54.525000
 20
58.600000
 11
64.375000
 21
58.600000
  0
LINE
  5
e76
100
AcDbEntity
  8
0
370
     0
100
AcDbLine
 10
67.650000
 20
58.600000
 11
73.125000
 21
58.600000
  0
LINE
  5
e79
100
AcDbEntity
  8
0
370
     0
100
AcDbLine
 10
80.950000
 20
58.600000
 11
88.750000
 21
58.600000
  0
LINE
  5
e7c
100
AcDbEntity
  8
0
370
     0
100
AcDbLine
 10
93.600000
 20
58.300000
 11
103.125000
 21
58.300000
  0
LINE
  5
e7f
100
AcDbEntity
  8
0
370
     0
100
AcDbLine
 10
105.625000
 20
58.125000
 11
114.700000
 21
58.125000
  0
LINE
  5
e82
100
AcDbEntity
  8
0
370
     0
100
AcDbLine
 10
40.475000
 20
71.725000
 11
42.350000
 21
71.725000
  0
LINE
  5
e85
100
AcDbEntity
  8
0
370
     0
100
AcDbLine
 10
48.125000
 20
71.725000
 11
57.350000
 21
71.725000
  0
LINE
  5
e88
100
AcDbEntity
  8
0
370
     0
100
AcDbLine
 10
64.075000
 20
71.875000
 11
73.600000
 21
71.875000
  0
LINE
  5
e8b
100
AcDbEntity
  8
0
370
     0
100
AcDbLine
 10
85.950000
 20
71.575000
 11
93.450000
 21
71.575000
  0
LINE
  5
e8e
100
AcDbEntity
  8
0
370
     0
100
AcDbLine
 10
98.600000
 20
71.425000
 11
102.825000
 21
71.425000
  0
LINE
  5
e91
100
AcDbEntity
  8
0
370
     0
100
AcDbLine
 10
107.350000
 20
71.575000
 11
112.825000
 21
71.575000
  0
LINE
  5
e94
100
AcDbEntity
  8
0
370
     0
100
AcDbLine
 10
43.900000
 20
66.875000
 11
52.500000
 21
66.875000
  0
LINE
  5
e97
100
AcDbEntity
  8
0
370
     0
100
AcDbLine
 10
57.200000
 20
67.350000
 11
65.475000
 21
67.350000
  0
LINE
  5
e9a
100
AcDbEntity
  8
0
370
     0
100
AcDbLine
 10
70.625000
 20
67.050000
 11
73.900000
 21
67.050000
  0
LINE
  5
e9d
100
AcDbEntity
  8
0
370
     0
100
AcDbLine
 10
83.750000
 20
66.425000
 11
92.650000
 21
66.425000
  0
LINE
  5
ea0
100
AcDbEntity
  8
0
370
     0
100
AcDbLine
 10
100.625000
 20
66.575000
 11
106.575000
 21
66.575000
  0
LINE
  5
ea3
100
AcDbEntity
  8
0
370
     0
100
AcDbLine
 10
111.100000
 20
67.500000
 11
114.700000
 21
67.500000
  0
LINE
  5
ea6
100
AcDbEntity
  8
0
370
     0
100
AcDbLine
 10
47.200000
 20
60.325000
 11
53.450000
 21
60.325000
  0
LINE
  5
ea9
100
AcDbEntity
  8
0
370
     0
100
AcDbLine
 10
58.750000
 20
60.175000
 11
70.775000
 21
60.175000
  0
LINE
  5
eac
100
AcDbEntity
  8
0
370
     0
100
AcDbLine
 10
83.450000
 20
60.325000
 11
90.775000
 21
60.325000
  0
LINE
  5
eaf
100
AcDbEntity
  8
0
370
     0
100
AcDbLine
 10
95.775000
 20
59.700000
 11
102.200000
 21
59.700000
  0
LINE
  5
eb2
100
AcDbEntity
  8
0
370
     0
100
AcDbLine
 10
109.525000
 20
60.325000
 11
114.075000
 21
60.325000
  0
LINE
  5
eb5
100
AcDbEntity
  8
0
370
     0
100
AcDbLine
 10
48.275000
 20
57.050000
 11
57.200000
 21
57.050000
  0
LINE
  5
eb8
100
AcDbEntity
  8
0
370
     0
100
AcDbLine
 10
62.825000
 20
57.200000
 11
70.475000
 21
57.200000
  0
LINE
  5
ebb
100
AcDbEntity
  8
0
370
     0
100
AcDbLine
 10
86.575000
 20
57.050000
 11
95.150000
 21
57.050000
  0
LINE
  5
ebe
100
AcDbEntity
  8
0
370
     0
100
AcDbLine
 10
46.575000
 20
63.450000
 11
54.225000
 21
63.450000
  0
LINE
  5
ec1
100
AcDbEntity
  8
0
370
     0
100
AcDbLine
 10
61.575000
 20
63.450000
 11
70.325000
 21
63.450000
  0
LINE
  5
ec4
100
AcDbEntity
  8
0
370
     0
100
AcDbLine
 10
86.250000
 20
63.125000
 11
96.100000
 21
63.125000
  0
LINE
  5
ec7
100
AcDbEntity
  8
0
370
     0
100
AcDbLine
 10
104.375000
 20
63.125000
 11
112.350000
 21
63.125000
  0
POINT
  5
eca
100
AcDbEntity
  8
0
100
AcDbPoint
 10
94.350000
 20
22.325000
  0
POINT
  5
ecd
100
AcDbEntity
  8
0
100
AcDbPoint
 10
100.300000
 20
17.825000
  0
POINT
  5
ed0
100
AcDbEntity
  8
0
100
AcDbPoint
 10
93.600000
 20
18.125000
  0
POINT
  5
ed3
100
AcDbEntity
  8
0
100
AcDbPoint
 10
92.025000
 20
24.850000
  0
POINT
  5
ed6
100
AcDbEntity
  8
0
100
AcDbPoint
 10
97.175000
 20
21.100000
  0
POINT
  5
ed9
100
AcDbEntity
  8
0
100
AcDbPoint
 10
95.000000
 20
19.225000
  0
POINT
  5
edc
100
AcDbEntity
  8
0
100
AcDbPoint
 10
60.150000
 20
35.150000
  0
POINT
  5
edf
100
AcDbEntity
  8
0
100
AcDbPoint
 10
56.400000
 20
41.575000
  0
POINT
  5
ee2
100
AcDbEntity
  8
0
100
AcDbPoint
 10
58.750000
 20
37.975000
  0
POINT
  5
ee5
100
AcDbEntity
  8
0
100
AcDbPoint
 10
58.600000
 20
40.000000
  0
POINT
  5
ee8
100
AcDbEntity
  8
0
100
AcDbPoint
 10
65.150000
 20
30.450000
  0
POINT
  5
eeb
100
AcDbEntity
  8
0
100
AcDbPoint
 10
61.400000
 20
36.875000
  0
POINT
  5
eee
100
AcDbEntity
  8
0
100
AcDbPoint
 10
63.750000
 20
33.275000
  0
POINT
  5
ef1
100
AcDbEntity
  8
0
100
AcDbPoint
 10
63.600000
 20
35.300000
  0
POINT
  5
ef4
100
AcDbEntity
  8
0
100
AcDbPoint
 10
63.275000
 20
27.000000
  0
POINT
  5
ef7
100
AcDbEntity
  8
0
100
AcDbPoint
 10
61.875000
 20
29.825000
  0
POINT
  5
efa
100
AcDbEntity
  8
0
100
AcDbPoint
 10
61.725000
 20
31.850000
  0
POINT
  5
efd
100
AcDbEntity
  8
0
100
AcDbPoint
 10
66.075000
 20
20.125000
  0
POINT
  5
f00
100
AcDbEntity
  8
0
100
AcDbPoint
 10
64.675000
 20
22.950000
  0
POINT
  5
f03
100
AcDbEntity
  8
0
100
AcDbPoint
 10
64.525000
 20
24.975000
  0
LINE
  5
f06
100
AcDbEntity
  8
0
370
     0
100
AcDbLine
 10
85.325000
 20
78.450000
 11
90.000000
 21
78.450000
  0
LINE
  5
f09
100
AcDbEntity
  8
0
370
     0
100
AcDbLine
 10
94.375000
 20
78.450000
 11
99.375000
 21
78.450000
  0
LINE
  5
f0c
100
AcDbEntity
  8
0
370
     0
100
AcDbLine
 10
103.125000
 20
79.075000
 11
109.700000
 21
79.075000
  0
LINE
  5
f0f
100
AcDbEntity
  8
0
370
     0
100
AcDbLine
 10
113.125000
 20
78.750000
 11
115.325000
 21
78.750000
  0
LINE
  5
f12
100
AcDbEntity
  8
0
370
    20
100
AcDbLine
 10
76.400000
 20
21.100000
 11
76.400000
 21
13.500000
  0
LWPOLYLINE
  5
f15
100
AcDbEntity
  8
0
100
AcDbPolyline
 90
     4
 70
     0
 10
79.225000
 20
13.600000
 10
79.075000
 20
27.200000
 10
79.525000
 20
32.200000
 10
79.475000
 20
42.700000
  0
LWPOLYLINE
  5
f20
100
AcDbEntity
  8
0
100
AcDbPolyline
 90
     3
 70
     0
 10
79.475000
 20
43.100000
 10
79.375000
 20
80.000000
 10
79.525000
 20
79.850000
  0
LWPOLYLINE
  5
f29
100
AcDbEntity
  8
0
100
AcDbPolyline
 90
     4
 70
     0
 10
75.150000
 20
13.600000
 10
75.475000
 20
26.875000
 10
74.850000
 20
32.050000
 10
74.950000
 20
79.650000
  0
LINE
  5
f34
100
AcDbEntity
  8
0
370
     0
100
AcDbLine
 10
79.500000
 20
42.600000
 11
79.500000
 21
42.875000
  0
LINE
  5
f37
100
AcDbEntity
  8
0
370
     0
100
AcDbLine
 10
79.500000
 20
43.125000
 11
79.450000
 21
42.950000
  0
LINE
  5
f3a
100
AcDbEntity
  8
0
370
     0
100
AcDbLine
 10
45.525000
 20
78.450000
 11
51.575000
 21
78.450000
  0
LINE
  5
f3d
100
AcDbEntity
  8
0
370
     0
100
AcDbLine
 10
65.825000
 20
78.650000
 11
70.200000
 21
78.650000
  0
LWPOLYLINE
  5
f40
100
AcDbEntity
  8
0
100
AcDbPolyline
 90
     4
 70
     1
 43
0.200000
 10
77.000000
 20
241.875000
 10
77.000000
 20
251.075000
 10
77.625000
 20
251.075000
 10
77.625000
 20
241.875000
  0
SPLINE
  5
f4b
100
AcDbEntity
  8
0
370
    20
100
AcDbSpline
210
0.000000
220
0.000000
230
1.000000
 70
     8
 71
     3
 72
    47
 73
    43
 74
     0
 42
0.0000001
 43
0.0000001
 44
0.0000000001
 40
0.000000
 40
0.000000
 40
0.000000
 40
0.000000
 40
1.291559
 40
1.291559
 40
1.291559
 40
2.466559
 40
2.466559
 40
2.466559
 40
3.944945
 40
3.944945
 40
3.944945
 40
5.379562
 40
5.379562
 40
5.379562
 40
6.816790
 40
6.816790
 40
6.816790
 40
7.917926
 40
7.917926
 40
7.917926
 40
12.843941
 40
12.843941
 40
12.843941
 40
14.965556
 40
14.965556
 40
14.965556
 40
16.666291
 40
16.666291
 40
16.666291
 40
18.600522
 40
18.600522
 40
18.600522
 40
19.450522
 40
19.450522
 40
19.450522
 40
20.767953
 40
20.767953
 40
20.767953
 40
20.842953
 40
20.842953
 40
20.842953
 40
20.967953
 40
20.967953
 40
20.967953
 40
20.967953
 10
77.950000
 20
249.200000
 30
0.000000
 10
78.175000
 20
249.250000
 30
0.000000
 10
78.800000
 20
249.450000
 30
0.000000
 10
79.200000
 20
249.525000
 30
0.000000
 10
79.625000
 20
249.575000
 30
0.000000
 10
79.950000
 20
249.600000
 30
0.000000
 10
80.375000
 20
249.525000
 30
0.000000
 10
80.825000
 20
249.425000
 30
0.000000
 10
81.325000
 20
249.200000
 30
0.000000
 10
81.775000
 20
249.050000
 30
0.000000
 10
82.250000
 20
248.875000
 30
0.000000
 10
82.650000
 20
248.525000
 30
0.000000
 10
83.100000
 20
248.500000
 30
0.000000
 10
83.575000
 20
248.450000
 30
0.000000
 10
84.150000
 20
248.625000
 30
0.000000
 10
84.500000
 20
248.825000
 30
0.000000
 10
84.850000
 20
249.000000
 30
0.000000
 10
85.075000
 20
250.350000
 30
0.000000
 10
85.200000
 20
249.675000
 30
0.000000
 10
85.350000
 20
248.975000
 30
0.000000
 10
85.625000
 20
245.700000
 30
0.000000
 10
85.300000
 20
244.750000
 30
0.000000
 10
85.000000
 20
243.800000
 30
0.000000
 10
83.925000
 20
243.975000
 30
0.000000
 10
83.325000
 20
243.975000
 30
0.000000
 10
82.750000
 20
243.950000
 30
0.000000
 10
82.325000
 20
244.400000
 30
0.000000
 10
81.775000
 20
244.675000
 30
0.000000
 10
81.250000
 20
244.925000
 30
0.000000
 10
80.500000
 20
245.400000
 30
0.000000
 10
80.050000
 20
245.550000
 30
0.000000
 10
79.625000
 20
245.675000
 30
0.000000
 10
79.525000
 20
245.650000
 30
0.000000
 10
79.200000
 20
245.550000
 30
0.000000
 10
78.875000
 20
245.425000
 30
0.000000
 10
78.300000
 20
244.925000
 30
0.000000
 10
78.100000
 20
244.825000
 30
0.000000
 10
77.925000
 20
244.700000
 30
0.000000
 10
78.025000
 20
244.800000
 30
0.000000
 10
78.025000
 20
244.825000
 30
0.000000
 10
78.025000
 20
244.825000
 30
0.000000
 10
78.100000
 20
244.900000
 30
0.000000
 10
78.100000
 20
244.925000
 30
0.000000
  0
MTEXT
  5
f4e
100
AcDbEntity
  8
0
100
AcDbMText
 10
91.450000
 20
251.825000
 40
2.137500
 41
10.260000
 71
     1
 72
     5
  1
\fＭＳ 明朝|b0|i0|c128|p17;\H2.1375;\T1.4384;赤\T1.6224;旗
 44
0.765176
 73
     1
  7
BIGFONT
  0
LINE
  5
f51
100
AcDbEntity
  8
0
370
     0
100
AcDbLine
 10
85.675000
 20
248.275000
 11
91.300000
 21
249.325000
  0
LWPOLYLINE
  5
f54
100
AcDbEntity
  8
0
100
AcDbPolyline
 90
     3
 70
     0
 10
87.475000
 20
249.150000
 10
85.675000
 20
248.275000
 10
87.650000
 20
248.125000
  0
HATCH
  5
f5d
330
F6
100
AcDbEntity
  8
0
100
AcDbHatch
 10
0.0
 20
0.0
 30
0.0
210
0.0
220
0.0
230
1.0
  2
SOLID
 70
     1
 71
     0
 91
     1
 92
     7
 72
     0
 73
     1
 93
     4
 10
75.900000
 20
256.875000
 10
78.550000
 20
256.875000
 10
78.550000
 20
251.250000
 10
75.900000
 20
251.250000
 97
     1
330
f60
 75
     0
 76
     1
 47
0.651316
 98
     1
 10
0.0
 20
0.0
  0
LWPOLYLINE
  5
f60
330
F6
100
AcDbEntity
  8
0
100
AcDbPolyline
 90
     4
 70
     1
 43
0.400000
 10
75.900000
 20
256.875000
 10
78.550000
 20
256.875000
 10
78.550000
 20
251.250000
 10
75.900000
 20
251.250000
  0
LWPOLYLINE
  5
f6b
100
AcDbEntity
  8
0
100
AcDbPolyline
 90
     4
 70
     1
 43
0.400000
 10
75.900000
 20
256.875000
 10
78.550000
 20
256.875000
 10
78.550000
 20
251.250000
 10
75.900000
 20
251.250000
  0
LWPOLYLINE
  5
f76
100
AcDbEntity
  8
0
100
AcDbPolyline
 90
     4
 70
     1
 10
37.075000
 20
173.475000
 10
37.075000
 20
188.775000
 10
38.100000
 20
188.775000
 10
38.100000
 20
173.475000
  0
HATCH
  5
f81
330
F6
100
AcDbEntity
  8
0
100
AcDbHatch
 10
0.0
 20
0.0
 30
0.0
210
0.0
220
0.0
230
1.0
  2
SOLID
 70
     1
 71
     0
 91
     1
 92
     7
 72
     0
 73
     1
 93
     4
 10
36.150000
 20
194.400000
 10
38.800000
 20
194.400000
 10
38.800000
 20
188.775000
 10
36.150000
 20
188.775000
 97
     1
330
f84
 75
     0
 76
     1
 47
0.651316
 98
     1
 10
0.0
 20
0.0
  0
LWPOLYLINE
  5
f84
330
F6
100
AcDbEntity
  8
0
100
AcDbPolyline
 90
     4
 70
     1
 43
0.400000
 10
36.150000
 20
194.400000
 10
38.800000
 20
194.400000
 10
38.800000
 20
188.775000
 10
36.150000
 20
188.775000
  0
LWPOLYLINE
  5
f8f
100
AcDbEntity
  8
0
100
AcDbPolyline
 90
     4
 70
     1
 43
0.400000
 10
36.150000
 20
194.400000
 10
38.800000
 20
194.400000
 10
38.800000
 20
188.775000
 10
36.150000
 20
188.775000
  0
MTEXT
  5
f9a
100
AcDbEntity
  8
0
100
AcDbMText
 10
34.925000
 20
203.575000
 40
2.137500
 41
15.390000
 71
     1
 72
     5
  1
\fＭＳ 明朝|b0|i0|c128|p17;\H2.1375;\T1.4384;点滅\T1.6224;燈
 44
0.765176
 73
     1
  7
BIGFONT
  0
LINE
  5
f9d
100
AcDbEntity
  8
0
370
     0
100
AcDbLine
 10
37.725000
 20
195.475000
 11
40.225000
 21
199.225000
  0
LWPOLYLINE
  5
fa0
100
AcDbEntity
  8
0
100
AcDbPolyline
 90
     3
 70
     0
 10
38.350000
 20
197.375000
 10
37.725000
 20
195.475000
 10
39.200000
 20
196.800000
  0
LWPOLYLINE
  5
fa9
100
AcDbEntity
  8
0
100
AcDbPolyline
 90
     4
 70
     1
 10
111.275000
 20
173.300000
 10
111.275000
 20
189.075000
 10
112.450000
 20
189.075000
 10
112.450000
 20
173.300000
  0
HATCH
  5
fb4
330
F6
100
AcDbEntity
  8
0
100
AcDbHatch
 10
0.0
 20
0.0
 30
0.0
210
0.0
220
0.0
230
1.0
  2
SOLID
 70
     1
 71
     0
 91
     1
 92
     7
 72
     0
 73
     1
 93
     4
 10
110.500000
 20
194.850000
 10
113.150000
 20
194.850000
 10
113.150000
 20
189.225000
 10
110.500000
 20
189.225000
 97
     1
330
fb7
 75
     0
 76
     1
 47
0.651316
 98
     1
 10
0.0
 20
0.0
  0
LWPOLYLINE
  5
fb7
330
F6
100
AcDbEntity
  8
0
100
AcDbPolyline
 90
     4
 70
     1
 43
0.400000
 10
110.500000
 20
194.850000
 10
113.150000
 20
194.850000
 10
113.150000
 20
189.225000
 10
110.500000
 20
189.225000
  0
LWPOLYLINE
  5
fc2
100
AcDbEntity
  8
0
100
AcDbPolyline
 90
     4
 70
     1
 43
0.400000
 10
110.500000
 20
194.850000
 10
113.150000
 20
194.850000
 10
113.150000
 20
189.225000
 10
110.500000
 20
189.225000
  0
ENDSEC
  0
SECTION
  2
OBJECTS
  0
DICTIONARY
  5
fd5
100
AcDbDictionary
281
     1
  3
ACAD_COLOR
350
fd6
  3
ACAD_GROUP
350
fd7
  3
ACAD_LAYOUT
350
fd8
  3
ACAD_MATERIAL
350
fd9
  3
ACAD_MLINESTYLE
350
fda
  3
CONTENTDICTIONARY
350
fe0
  0
DICTIONARY
  5
fd6
102
{ACAD_REACTORS
330
fd5
102
}
330
fd5
100
AcDbDictionary
281
     1
  0
DICTIONARY
  5
fd7
102
{ACAD_REACTORS
330
fd5
102
}
330
fd5
100
AcDbDictionary
281
     1
  3
Layout1
350
fe1
  3
Layout2
350
fe2
  3
Model
350
1025
  0
DICTIONARY
  5
fd8
102
{ACAD_REACTORS
330
fd5
102
}
330
fd5
100
AcDbDictionary
281
     1
  0
DICTIONARY
  5
fd9
102
{ACAD_REACTORS
330
fd5
102
}
330
fd5
100
AcDbDictionary
281
     1
  0
DICTIONARY
  5
fda
102
{ACAD_REACTORS
330
fd5
102
}
330
fd5
100
AcDbDictionary
281
     1
  3
Standard
350
fe3
  0
DICTIONARY
  5
fdb
102
{ACAD_REACTORS
330
fd5
102
}
330
fd5
100
AcDbDictionary
281
     1
  0
ACDBDICTIONARYWDFLT
  5
fdc
102
{ACAD_REACTORS
330
fd5
102
}
330
fd5
100
AcDbDictionary
281
     1
  3
Normal
350
1026
100
AcDbDictionaryWithDefault
340
1026
  0
DICTIONARY
  5
fdd
102
{ACAD_REACTORS
330
fd5
102
}
330
fd5
100
AcDbDictionary
281
     1
  3
Standard
350
1027
  0
DICTIONARY
  5
fde
102
{ACAD_REACTORS
330
fd5
102
}
330
fd5
100
AcDbDictionary
281
     1
  3
CEPSNTYPE
350
fe5
  3
FINGERPRINTGUID
350
fe6
  3
HYPERLINKBASE
350
fe7
  3
INSUNITS
350
fe8
  3
LAYOUTDICT
350
fe9
  3
LWETCUNION
350
fea
  3
PLOTSETDICT
350
feb
  3
PLOTSTYLNAMDICT
350
fec
  3
PSVPSCALE
350
fed
  3
PUCSBASE
350
fee
  3
PUCSORGBACK
350
fef
  3
PUCSORGBOTTOM
350
ff0
  3
PUCSORGFRONT
350
ff1
  3
PUCSORGLEFT
350
ff2
  3
PUCSORGRIGHT
350
ff3
  3
PUCSORGTOP
350
ff4
  3
PUCSORTHOREF
350
ff5
  3
PUCSORTHOVIEW
350
ff6
  3
STYLESHEET
350
ff7
  3
TSTACKALIGN
350
ff8
  3
TSTACKSIZE
350
ff9
  3
UCSBASE
350
ffa
  3
UCSORGBACK
350
ffb
  3
UCSORGBOTTOM
350
ffc
  3
UCSORGFRONT
350
ffd
  3
UCSORGLEFT
350
ffe
  3
UCSORGRIGHT
350
fff
  3
UCSORGTOP
350
1000
  3
UCSORTHOREF
350
1001
  3
UCSORTHOVIEW
350
1002
  3
VERSIONGUID
350
1003
  0
DICTIONARY
  5
fdf
102
{ACAD_REACTORS
330
fd5
102
}
330
fd5
100
AcDbDictionary
281
     1
  3
CTABLESTYLE
350
1004
  3
DIMASSOC
350
1005
  3
HIDETEXT
350
1006
  3
PROJECTNAME
350
1007
  0
LAYOUT
  5
fe0
102
{ACAD_XDICTIONARY
360
12eb
102
}
102
{ACAD_REACTORS
330
fd6
102
}
330
fd6
100
AcDbPlotSettings
  1

  2

  4

  6

 40
0.000000
 41
0.000000
 42
0.000000
 43
0.000000
 44
0.000000
 45
0.000000
 46
0.000000
 47
0.000000
 48
0.000000
 49
0.000000
140
0.000000
141
0.000000
142
1.000000
143
1.000000
 70
   688
 72
     0
 73
     0
 74
     5
  7

 75
    16
147
1.000000
148
0.000000
149
0.000000
100
AcDbLayout
  1
Layout1
 70
     1
 71
     1
 10
0.000000
 20
0.000000
 11
186.000000
 21
275.000000
 12
0.000000
 22
0.000000
 32
0.000000
 14
100000000000000000000.000000
 24
100000000000000000000.000000
 34
100000000000000000000.000000
 15
-100000000000000000000.000000
 25
-100000000000000000000.000000
 35
-100000000000000000000.000000
146
0.000000
 13
0.000000
 23
0.000000
 33
0.000000
 16
1.000000
 26
0.000000
 36
0.000000
 17
0.000000
 27
1.000000
 37
0.000000
 76
     0
330
fda
  0
LAYOUT
  5
fe1
102
{ACAD_XDICTIONARY
360
12ed
102
}
102
{ACAD_REACTORS
330
fd6
102
}
330
fd6
100
AcDbPlotSettings
  1

  2

  4

  6

 40
0.000000
 41
0.000000
 42
0.000000
 43
0.000000
 44
0.000000
 45
0.000000
 46
0.000000
 47
0.000000
 48
0.000000
 49
0.000000
140
0.000000
141
0.000000
142
1.000000
143
1.000000
 70
   688
 72
     0
 73
     0
 74
     5
  7

 75
    16
147
1.000000
148
0.000000
149
0.000000
100
AcDbLayout
  1
Layout2
 70
     1
 71
     2
 10
0.000000
 20
0.000000
 11
186.000000
 21
275.000000
 12
0.000000
 22
0.000000
 32
0.000000
 14
0.000000
 24
0.000000
 34
0.000000
 15
0.000000
 25
0.000000
 35
0.000000
146
0.000000
 13
0.000000
 23
0.000000
 33
0.000000
 16
1.000000
 26
0.000000
 36
0.000000
 17
0.000000
 27
1.000000
 37
0.000000
 76
     0
330
fe1
  0
LAYOUT
  5
fe2
102
{ACAD_XDICTIONARY
360
12ef
102
}
102
{ACAD_REACTORS
330
fd6
102
}
330
fd6
100
AcDbPlotSettings
  1

  2

  4

  6

 40
0.000000
 41
0.000000
 42
0.000000
 43
0.000000
 44
0.000000
 45
0.000000
 46
0.000000
 47
0.000000
 48
0.000000
 49
0.000000
140
0.000000
141
0.000000
142
1.000000
143
1.000000
 70
  1712
 72
     0
 73
     0
 74
     0
  7

 75
    16
147
1.000000
148
0.000000
149
0.000000
100
AcDbLayout
  1
Model
 70
     1
 71
     0
 10
0.000000
 20
0.000000
 11
186.000000
 21
275.000000
 12
0.000000
 22
0.000000
 32
0.000000
 14
0.000000
 24
0.000000
 34
0.000000
 15
0.000000
 25
0.000000
 35
0.000000
146
0.000000
 13
0.000000
 23
0.000000
 33
0.000000
 16
1.000000
 26
0.000000
 36
0.000000
 17
0.000000
 27
1.000000
 37
0.000000
 76
     0
330
fe2
  0
MLINESTYLE
  5
fe3
102
{ACAD_REACTORS
330
fe2
102
}
330
fe2
100
AcDbMlineStyle
  2
STANDARD
 70
     0
  3
 
 62
   256
 51
90.000000
 52
90.000000
 71
     2
 49
0.500000
 62
   256
  6
BYLAYER
 49
-0.500000
 62
   256
  6
BYLAYER
  0
ACDBPLACEHOLDER
  5
fe4
102
{ACAD_REACTORS
330
fe3
102
}
330
fe3
  0
DICTIONARY
  5
12eb
100
AcDbDictionary
280
     1
281
     1
  3
ACAD_XREC_ROUNDTRIP
360
12ec
  0
DICTIONARY
  5
12ed
100
AcDbDictionary
280
     1
281
     1
  3
ACAD_XREC_ROUNDTRIP
360
12ee
  0
DICTIONARY
  5
12ef
100
AcDbDictionary
280
     1
281
     1
  3
ACAD_XREC_ROUNDTRIP
360
12f0
  0
XRECORD
  5
12ec
102
{ACAD_REACTORS
330
12eb
102
}
330
12eb
100
AcDbXrecord
280
     1
102
SHADEPLOT
 70
     0
102
SHADEPLOTRESLEVEL
 70
     2
102
SHADEPLOTCUSTOMDPI
 70
   300
  0
XRECORD
  5
12ee
102
{ACAD_REACTORS
330
12ed
102
}
330
12ed
100
AcDbXrecord
280
     1
102
SHADEPLOT
 70
     0
102
SHADEPLOTRESLEVEL
 70
     2
102
SHADEPLOTCUSTOMDPI
 70
   300
  0
XRECORD
  5
12f0
102
{ACAD_REACTORS
330
12ef
102
}
330
12ef
100
AcDbXrecord
280
     1
102
SHADEPLOT
 70
     0
102
SHADEPLOTRESLEVEL
 70
     2
102
SHADEPLOTCUSTOMDPI
 70
   300
  0
ENDSEC
  0
EOF
