  0
SECTION
  2
HEADER
  9
$ACADVER
  1
AC1018
  9
$ACADMAINTVER
 70
     0
  9
$DWGCODEPAGE
  3
ANSI_932
  9
$INSBASE
 10
0.000000
 20
0.000000
 30
0.000000
  9
$EXTMIN
 10
0.000000
 20
0.000000
 30
0.000000
  9
$EXTMAX
 10
171.000000
 20
244.000000
 30
0.000000
  9
$LIMMIN
 10
0.000000
 20
0.000000
  9
$LIMMAX
 10
171.000000
 20
244.000000
  9
$ORTHOMODE
 70
     0
  9
$REGENMODE
 70
     1
  9
$FILLMODE
 70
     1
  9
$QTEXTMODE
 70
     0
  9
$MIRRTEXT
 70
     1
  9
$LTSCALE
 40
1.000000
  9
$ATTMODE
 70
     1
  9
$TEXTSIZE
 40
2.500000
  9
$TRACEWID
 40
1.000000
  9
$TEXTSTYLE
  7
BIGFONT
  9
$CLAYER
  8
0
  9
$CELTYPE
  6
BYLAYER
  9
$CECOLOR
 62
   256
  9
$CELTSCALE
 40
1.000000
  9
$DISPSILH
 70
     0
  9
$DIMSCALE
 40
1.000000
  9
$DIMASZ
 40
2.500000
  9
$DIMEXO
 40
0.625000
  9
$DIMDLI
 40
3.750000
  9
$DIMRND
 40
0.000000
  9
$DIMDLE
 40
0.000000
  9
$DIMEXE
 40
1.250000
  9
$DIMTP
 40
0.000000
  9
$DIMTM
 40
0.000000
  9
$DIMTXT
 40
2.500000
  9
$DIMCEN
 40
2.500000
  9
$DIMTSZ
 40
0.000000
  9
$DIMTOL
 70
     0
  9
$DIMLIM
 70
     0
  9
$DIMTIH
 70
     0
  9
$DIMTOH
 70
     0
  9
$DIMSE1
 70
     0
  9
$DIMSE2
 70
     0
  9
$DIMTAD
 70
     1
  9
$DIMZIN
 70
     8
  9
$DIMBLK
  1

  9
$DIMASO
 70
     1
  9
$DIMSHO
 70
     1
  9
$DIMPOST
  1

  9
$DIMAPOST
  1

  9
$DIMALT
 70
     0
  9
$DIMALTD
 70
     4
  9
$DIMALTF
 40
0.039400
  9
$DIMLFAC
 40
1.000000
  9
$DIMTOFL
 70
     1
  9
$DIMTVP
 40
0.000000
  9
$DIMTIX
 70
     0
  9
$DIMSOXD
 70
     0
  9
$DIMSAH
 70
     0
  9
$DIMBLK1
  1

  9
$DIMBLK2
  1

  9
$DIMSTYLE
  2
STANDARD
  9
$DIMCLRD
 70
     0
  9
$DIMCLRE
 70
     0
  9
$DIMCLRT
 70
     0
  9
$DIMTFAC
 40
1.000000
  9
$DIMGAP
 40
0.625000
  9
$DIMJUST
 70
     0
  9
$DIMSD1
 70
     0
  9
$DIMSD2
 70
     0
  9
$DIMTOLJ
 70
     1
  9
$DIMTZIN
 70
     0
  9
$DIMALTZ
 70
     0
  9
$DIMALTTZ
 70
     0
  9
$DIMUPT
 70
     0
  9
$DIMDEC
 70
     4
  9
$DIMTDEC
 70
     4
  9
$DIMALTU
 70
     8
  9
$DIMALTTD
 70
     4
  9
$DIMTXSTY
  7
STANDARD
  9
$DIMAUNIT
 70
     0
  9
$DIMADEC
 70
     0
  9
$DIMALTRND
 40
0.000000
  9
$DIMAZIN
 70
     0
  9
$DIMDSEP
 70
    46
  9
$DIMATFIT
 70
     3
  9
$DIMFRAC
 70
     0
  9
$DIMLDRBLK
  1

  9
$DIMLUNIT
 70
     2
  9
$DIMLWD
 70
-2
  9
$DIMLWE
 70
-2
  9
$DIMTMOVE
 70
     0
  9
$LUNITS
 70
     2
  9
$LUPREC
 70
     4
  9
$AXISMODE
 70
     0
  9
$SKETCHINC
 40
1.000000
  9
$FILLETRAD
 40
10.000000
  9
$AUNITS
 70
     0
  9
$AUPREC
 70
     0
  9
$MENU
  1
acad
  9
$ELEVATION
 40
0.000000
  9
$PELEVATION
 40
0.000000
  9
$THICKNESS
 40
0.000000
  9
$LIMCHECK
 70
     0
  9
$BLIPMODE
 70
     0
  9
$CHAMFERA
 40
10.000000
  9
$CHAMFERB
 40
10.000000
  9
$CHAMFERC
 40
20.000000
  9
$CHAMFERD
 40
0.000000
  9
$SKPOLY
 70
     0
  9
$TDCREATE
 40
2447851.677998
  9
$TDUCREATE
 40
2447851.677998
  9
$TDUPDATE
 40
2447851.677998
  9
$TDUUPDATE
 40
2447851.677998
  9
$TDINDWG
 40
0.000000
  9
$TDUSRTIMER
 40
0.000000
  9
$USRTIMER
 70
     1
  9
$ANGBASE
 50
0.000000
  9
$ANGDIR
 70
     0
  9
$PDMODE
 70
     0
  9
$PDSIZE
 40
0.000000
  9
$PLINEWID
 40
0.000000
  9
$SPLFRAME
 70
     0
  9
$SPLINETYPE
 70
     6
  9
$SPLINESEGS
 70
     8
  9
$HANDSEED
  5
FFFFFFF
  9
$SURFTAB1
 70
     6
  9
$SURFTAB2
 70
     6
  9
$SURFTYPE
 70
     6
  9
$SURFU
 70
     6
  9
$SURFV
 70
     6
  9
$UCSBASE
  2

  9
$UCSNAME
  2

  9
$UCSORG
 10
0.000000
 20
0.000000
 30
0.000000
  9
$UCSXDIR
 10
1.000000
 20
0.000000
 30
0.000000
  9
$UCSYDIR
 10
0.000000
 20
1.000000
 30
0.000000
  9
$UCSORTHOREF
  2

  9
$UCSORTHOVIEW
 70
     0
  9
$UCSORGTOP
 10
0.000000
 20
0.000000
 30
0.000000
  9
$UCSORGBOTTOM
 10
0.000000
 20
0.000000
 30
0.000000
  9
$UCSORGLEFT
 10
0.000000
 20
0.000000
 30
0.000000
  9
$UCSORGRIGHT
 10
0.000000
 20
0.000000
 30
0.000000
  9
$UCSORGFRONT
 10
0.000000
 20
0.000000
 30
0.000000
  9
$UCSORGBACK
 10
0.000000
 20
0.000000
 30
0.000000
  9
$PUCSBASE
  2

  9
$PUCSNAME
  2

  9
$PUCSORG
 10
0.000000
 20
0.000000
 30
0.000000
  9
$PUCSXDIR
 10
1.000000
 20
0.000000
 30
0.000000
  9
$PUCSYDIR
 10
0.000000
 20
1.000000
 30
0.000000
  9
$PUCSORTHOREF
  2

  9
$PUCSORTHOVIEW
 70
     0
  9
$PUCSORGTOP
 10
0.000000
 20
0.000000
 30
0.000000
  9
$PUCSORGBOTTOM
 10
0.000000
 20
0.000000
 30
0.000000
  9
$PUCSORGLEFT
 10
0.000000
 20
0.000000
 30
0.000000
  9
$PUCSORGRIGHT
 10
0.000000
 20
0.000000
 30
0.000000
  9
$PUCSORGFRONT
 10
0.000000
 20
0.000000
 30
0.000000
  9
$PUCSORGBACK
 10
0.000000
 20
0.000000
 30
0.000000
  9
$USERI1
 70
     0
  9
$USERI2
 70
     0
  9
$USERI3
 70
     0
  9
$USERI4
 70
     0
  9
$USERI5
 70
     0
  9
$USERR1
 40
0.000000
  9
$USERR2
 40
0.000000
  9
$USERR3
 40
0.000000
  9
$USERR4
 40
0.000000
  9
$USERR5
 40
0.000000
  9
$WORLDVIEW
 70
     1
  9
$SHADEDGE
 70
     3
  9
$SHADEDIF
 70
    70
  9
$TILEMODE
 70
     1
  9
$MAXACTVP
 70
    48
  9
$PINSBASE
 10
0.000000
 20
0.000000
 30
0.000000
  9
$PLIMCHECK
 70
     0
  9
$PEXTMIN
 10
100000000000000000000.000000
 20
100000000000000000000.000000
 30
100000000000000000000.000000
  9
$PEXTMAX
 10
-100000000000000000000.000000
 20
-100000000000000000000.000000
 30
-100000000000000000000.000000
  9
$PLIMMIN
 10
0.000000
 20
0.000000
  9
$PLIMMAX
 10
171.000000
 20
244.000000
  9
$UNITMODE
 70
     0
  9
$VISRETAIN
 70
     1
  9
$PLINEGEN
 70
     0
  9
$PSLTSCALE
 70
     1
  9
$TREEDEPTH
 70
  3020
  9
$CMLSTYLE
  2
STANDARD
  9
$CMLJUST
 70
     0
  9
$CMLSCALE
 40
20.000000
  9
$PROXYGRAPHICS
 70
     1
  9
$MEASUREMENT
 70
     1
  9
$CELWEIGHT
370
-1
  9
$ENDCAPS
280
     0
  9
$JOINSTYLE
280
     0
  9
$LWDISPLAY
290
     1
  9
$INSUNITS
 70
     0
  9
$HYPERLINKBASE
  1

  9
$STYLESHEET
  1

  9
$XEDIT
290
     1
  9
$CEPSNTYPE
380
     0
  9
$PSTYLEMODE
290
     1
  9
$FINGERPRINTGUID
  2
{01801163-5BC0-459E-B9C7-2188C09ED432}
  9
$VERSIONGUID
  2
{7F326DDD-95DF-42AD-9861-A0CD9F0961F2}
  9
$EXTNAMES
290
     1
  9
$PSVPSCALE
 40
0.0
  9
$OLESTARTUP
290
     0
  9
$SORTENTS
280
   127
  9
$INDEXCTL
280
     0
  9
$HIDETEXT
280
     1
  9
$XCLIPFRAME
290
     0
  9
$HALOGAP
280
     0
  9
$OBSCOLOR
 70
   257
  9
$OBSLTYPE
280
     0
  9
$INTERSECTIONDISPLAY
280
     0
  9
$INTERSECTIONCOLOR
 70
   257
  9
$DIMASSOC
280
     2
  9
$PROJECTNAME
  1

  0
ENDSEC
  0
SECTION
  2
TABLES
  0
TABLE
  2
VPORT
  5
a2
100
AcDbSymbolTable
 70
     2
  0
VPORT
  5
a5
100
AcDbSymbolTableRecord
100
AcDbViewportTableRecord
  2
*ACTIVE
 70
     0
 10
0.000000
 20
0.000000
 11
1.000000
 21
1.000000
 12
300.000000
 22
200.000000
 13
0.000000
 23
0.000000
 14
10.000000
 24
10.000000
 15
10.000000
 25
10.000000
 16
0.000000
 26
0.000000
 36
1.000000
 17
0.000000
 27
0.000000
 37
0.000000
 40
300.000000
 41
1.600432
 42
50.000000
 43
0.000000
 44
0.000000
 50
0.000000
 51
0.000000
 71
     0
 72
   100
 73
     1
 74
     1
 75
     0
 76
     0
 77
     0
 78
     0
  0
ENDTAB
  0
TABLE
  2
LTYPE
  5
a8
100
AcDbSymbolTable
 70
    11
  0
LTYPE
  5
ab
100
AcDbSymbolTableRecord
100
AcDbLinetypeTableRecord
  2
BYBLOCK
 70
    64
  3
BYBLOCK
 72
    65
 73
     0
 40
0.000000
  0
LTYPE
  5
ae
100
AcDbSymbolTableRecord
100
AcDbLinetypeTableRecord
  2
BYLAYER
 70
    64
  3
BYLAYER
 72
    65
 73
     0
 40
0.000000
  0
LTYPE
  5
b1
100
AcDbSymbolTableRecord
100
AcDbLinetypeTableRecord
  2
CONTINUOUS
 70
    64
  3
実線
 72
    65
 73
     0
 40
0.000000
  0
LTYPE
  5
b4
100
AcDbSymbolTableRecord
100
AcDbLinetypeTableRecord
  2
DASHED
 70
    64
  3
__ __ __ __ __ __ __ __ __ __ __ __ __ __ __
 72
    65
 73
     2
 40
0.750000
 49
0.500000
 74
     0
 49
-0.250000
 74
     0
  0
LTYPE
  5
b7
100
AcDbSymbolTableRecord
100
AcDbLinetypeTableRecord
  2
HIDDEN
 70
    64
  3
_ _ _ _ _ _ _ _ _ _ _ _ _ _ _ _ _ _ _ _ _ _ _
 72
    65
 73
     2
 40
0.375000
 49
0.250000
 74
     0
 49
-0.125000
 74
     0
  0
LTYPE
  5
ba
100
AcDbSymbolTableRecord
100
AcDbLinetypeTableRecord
  2
CENTER
 70
    64
  3
____ _ ____ _ ____ _ ____ _ ____ _ ____ _ ____
 72
    65
 73
     4
 40
2.000000
 49
1.250000
 74
     0
 49
-0.250000
 74
     0
 49
0.250000
 74
     0
 49
-0.250000
 74
     0
  0
LTYPE
  5
bd
100
AcDbSymbolTableRecord
100
AcDbLinetypeTableRecord
  2
PHANTOM
 70
    64
  3
_____ _ _ _____ _ _ _____ _ _ _____ _ _ ____
 72
    65
 73
     6
 40
2.500000
 49
1.250000
 74
     0
 49
-0.250000
 74
     0
 49
0.250000
 74
     0
 49
-0.250000
 74
     0
 49
0.250000
 74
     0
 49
-0.250000
 74
     0
  0
LTYPE
  5
c0
100
AcDbSymbolTableRecord
100
AcDbLinetypeTableRecord
  2
DOT
 70
    64
  3
...............................................
 72
    65
 73
     2
 40
0.250000
 49
0.000000
 74
     0
 49
-0.250000
 74
     0
  0
LTYPE
  5
c3
100
AcDbSymbolTableRecord
100
AcDbLinetypeTableRecord
  2
DASHDOT
 70
    64
  3
__ . __ . __ . __ . __ . __ . __ . __ . __ . __
 72
    65
 73
     4
 40
1.000000
 49
0.500000
 74
     0
 49
-0.250000
 74
     0
 49
0.000000
 74
     0
 49
-0.250000
 74
     0
  0
LTYPE
  5
c6
100
AcDbSymbolTableRecord
100
AcDbLinetypeTableRecord
  2
BORDER
 70
    64
  3
__ __ . __ __ . __ __ . __ __ . __ __ . __ __
 72
    65
 73
     6
 40
1.750000
 49
0.500000
 74
     0
 49
-0.250000
 74
     0
 49
0.500000
 74
     0
 49
-0.250000
 74
     0
 49
0.000000
 74
     0
 49
-0.250000
 74
     0
  0
LTYPE
  5
c9
100
AcDbSymbolTableRecord
100
AcDbLinetypeTableRecord
  2
DIVIDE
 70
    64
  3
__ . . __ . . __ . . __ . . __ . . __ . . __
 72
    65
 73
     6
 40
1.250000
 49
0.500000
 74
     0
 49
-0.250000
 74
     0
 49
0.000000
 74
     0
 49
-0.250000
 74
     0
 49
0.000000
 74
     0
 49
-0.250000
 74
     0
  0
ENDTAB
  0
TABLE
  2
LAYER
  5
cc
100
AcDbSymbolTable
 70
     2
  0
LAYER
  5
cf
100
AcDbSymbolTableRecord
100
AcDbLayerTableRecord
  2
0
 70
     0
 62
     7
  6
CONTINUOUS
370
 65533
390
	F
  0
LAYER
  5
d2
100
AcDbSymbolTableRecord
100
AcDbLayerTableRecord
  2
B
 70
     0
 62
     7
  6
CONTINUOUS
370
 65533
390
	F
  0
LAYER
  5
d5
100
AcDbSymbolTableRecord
100
AcDbLayerTableRecord
  2
C
 70
     0
 62
     7
  6
CONTINUOUS
370
 65533
390
	F
  0
LAYER
  5
d8
100
AcDbSymbolTableRecord
100
AcDbLayerTableRecord
  2
D
 70
     0
 62
     7
  6
CONTINUOUS
370
 65533
390
	F
  0
LAYER
  5
db
100
AcDbSymbolTableRecord
100
AcDbLayerTableRecord
  2
E
 70
     0
 62
     7
  6
CONTINUOUS
370
 65533
390
	F
  0
LAYER
  5
de
100
AcDbSymbolTableRecord
100
AcDbLayerTableRecord
  2
F
 70
     0
 62
     7
  6
CONTINUOUS
370
 65533
390
	F
  0
LAYER
  5
e1
100
AcDbSymbolTableRecord
100
AcDbLayerTableRecord
  2
G
 70
     0
 62
     7
  6
CONTINUOUS
370
 65533
390
	F
  0
LAYER
  5
e4
100
AcDbSymbolTableRecord
100
AcDbLayerTableRecord
  2
H
 70
     0
 62
     7
  6
CONTINUOUS
370
 65533
390
	F
  0
LAYER
  5
e7
100
AcDbSymbolTableRecord
100
AcDbLayerTableRecord
  2
I
 70
     0
 62
     7
  6
CONTINUOUS
370
 65533
390
	F
  0
LAYER
  5
ea
100
AcDbSymbolTableRecord
100
AcDbLayerTableRecord
  2
J
 70
     0
 62
     7
  6
CONTINUOUS
370
 65533
390
	F
  0
LAYER
  5
ed
100
AcDbSymbolTableRecord
100
AcDbLayerTableRecord
  2
K
 70
     0
 62
     7
  6
CONTINUOUS
370
 65533
390
	F
  0
LAYER
  5
f0
100
AcDbSymbolTableRecord
100
AcDbLayerTableRecord
  2
L
 70
     0
 62
     7
  6
CONTINUOUS
370
 65533
390
	F
  0
LAYER
  5
f3
100
AcDbSymbolTableRecord
100
AcDbLayerTableRecord
  2
M
 70
     0
 62
     7
  6
CONTINUOUS
370
 65533
390
	F
  0
LAYER
  5
f6
100
AcDbSymbolTableRecord
100
AcDbLayerTableRecord
  2
N
 70
     0
 62
     7
  6
CONTINUOUS
370
 65533
390
	F
  0
ENDTAB
  0
TABLE
  2
STYLE
  5
f9
100
AcDbSymbolTable
 70
     2
  0
STYLE
  5
fc
100
AcDbSymbolTableRecord
100
AcDbTextStyleTableRecord
  2
STANDARD
 70
     0
 40
0.000000
 41
0.500000
 50
0.000000
 71
     0
 42
0.300000
  3
txt
  4

  0
STYLE
  5
ff
100
AcDbSymbolTableRecord
100
AcDbTextStyleTableRecord
  2
BIGFONT
 70
    64
 40
0.000000
 41
1.000000
 50
0.000000
 71
     0
 42
0.200000
  3

  4
bigfont
  0
ENDTAB
  0
TABLE
  2
VIEW
  5
102
100
AcDbSymbolTable
 70
     0
  0
ENDTAB
  0
TABLE
  2
UCS
  5
105
100
AcDbSymbolTable
 70
     0
  0
ENDTAB
  0
TABLE
  2
APPID
  5
108
100
AcDbSymbolTable
 70
     3
  0
APPID
  5
10b
100
AcDbSymbolTableRecord
100
AcDbRegAppTableRecord
  2
ACAD
 70
     0
  0
APPID
  5
10e
100
AcDbSymbolTableRecord
100
AcDbRegAppTableRecord
  2
CONTENTTABDATA
 70
     0
  0
APPID
  5
111
100
AcDbSymbolTableRecord
100
AcDbRegAppTableRecord
  2
CONTENTCURRENTTAB
 70
     0
  0
ENDTAB
  0
TABLE
  2
DIMSTYLE
  5
114
330
     0
100
AcDbSymbolTable
 70
     2
100
AcDbDimStyleTable
 70
     1
  0
DIMSTYLE
105
117
100
AcDbSymbolTableRecord
100
AcDbDimStyleTableRecord
  2
STANDARD
 70
     0
  3

  4

  5

  6

  7

 40
1.000000
 41
0.180000
 42
0.062500
 43
0.380000
 44
0.180000
 45
0.000000
 46
0.000000
 47
0.000000
 48
0.000000
140
0.180000
141
0.090000
142
0.000000
143
25.400000
144
1.000000
145
0.000000
146
1.000000
147
0.090000
 71
     0
 72
     0
 73
     1
 74
     1
 75
     0
 76
     0
 77
     0
 78
     0
170
     0
171
     2
172
     0
173
     0
174
     0
175
     0
176
     0
177
     0
178
     0
270
     2
271
     4
272
     4
273
     2
274
     2
340
fc
275
     0
280
     0
281
     0
282
     0
283
     1
284
     0
285
     0
286
     0
287
     3
288
     0
  0
ENDTAB
  0
TABLE
  2
BLOCK_RECORD
  5
11a
100
AcDbSymbolTable
 70
     0
  0
BLOCK_RECORD
  5
11d
100
AcDbSymbolTableRecord
100
AcDbBlockTableRecord
  2
*MODEL_SPACE
  0
BLOCK_RECORD
  5
120
100
AcDbSymbolTableRecord
100
AcDbBlockTableRecord
  2
*PAPER_SPACE
  0
ENDTAB
  0
ENDSEC
  0
SECTION
  2
BLOCKS
  0
BLOCK
  5
123
330
124
100
AcDbEntity
  8
0
100
AcDbBlockBegin
  2
*Model_Space
 70
     0
 10
0.000000
 20
0.000000
 30
0.000000
  3
*Model_Space
  1
 
  0
ENDBLK
  5
126
330
124
100
AcDbEntity
  8
0
100
AcDbBlockEnd
  0
BLOCK
  5
129
330
12a
100
AcDbEntity
 67
     1
  8
0
100
AcDbBlockBegin
  2
*Paper_Space
 70
     0
 10
0.000000
 20
0.000000
 30
0.000000
  3
*Paper_Space
  1
 
  0
ENDBLK
  5
12c
330
12d
100
AcDbEntity
 67
     1
  8
0
100
AcDbBlockEnd
  0
ENDSEC
  0
SECTION
  2
ENTITIES
  0
LWPOLYLINE
  5
12f
100
AcDbEntity
  8
0
100
AcDbPolyline
 90
     4
 70
     1
 43
0.200000
 10
41.675000
 20
143.475000
 10
53.225000
 20
143.475000
 10
53.225000
 20
135.250000
 10
41.675000
 20
135.250000
  0
LWPOLYLINE
  5
13a
100
AcDbEntity
  8
0
100
AcDbPolyline
 90
     4
 70
     0
 43
0.200000
 10
41.675000
 20
135.250000
 10
43.950000
 20
134.000000
 10
51.050000
 20
134.000000
 10
53.225000
 20
135.250000
  0
LWPOLYLINE
  5
145
100
AcDbEntity
  8
0
100
AcDbPolyline
 90
     4
 70
     0
 43
0.200000
 10
41.675000
 20
143.475000
 10
43.950000
 20
144.725000
 10
51.025000
 20
144.725000
 10
53.225000
 20
143.475000
  0
LWPOLYLINE
  5
150
100
AcDbEntity
  8
0
100
AcDbPolyline
 90
     4
 70
     0
 43
0.200000
 10
44.900000
 20
133.975000
 10
44.900000
 20
132.600000
 10
50.000000
 20
132.600000
 10
50.000000
 20
133.975000
  0
LWPOLYLINE
  5
15b
100
AcDbEntity
  8
0
100
AcDbPolyline
 90
     4
 70
     0
 43
0.200000
 10
45.700000
 20
132.650000
 10
45.700000
 20
120.475000
 10
49.450000
 20
120.475000
 10
49.450000
 20
132.600000
  0
HATCH
  5
166
330
F6
100
AcDbEntity
  8
0
100
AcDbHatch
 10
0.0
 20
0.0
 30
0.0
210
0.0
220
0.0
230
1.0
  2
SOLID
 70
     1
 71
     0
 91
     1
 92
     7
 72
     0
 73
     1
 93
     4
 10
53.100000
 20
200.975000
 10
54.025000
 20
200.975000
 10
54.025000
 20
171.300000
 10
53.100000
 20
171.300000
 97
     1
330
169
 75
     0
 76
     1
 47
0.651316
 98
     1
 10
0.0
 20
0.0
  0
LWPOLYLINE
  5
169
330
F6
100
AcDbEntity
  8
0
100
AcDbPolyline
 90
     4
 70
     1
 43
0.200000
 10
53.100000
 20
200.975000
 10
54.025000
 20
200.975000
 10
54.025000
 20
171.300000
 10
53.100000
 20
171.300000
  0
HATCH
  5
174
330
F6
100
AcDbEntity
  8
0
100
AcDbHatch
 10
0.0
 20
0.0
 30
0.0
210
0.0
220
0.0
230
1.0
  2
SOLID
 70
     1
 71
     0
 91
     1
 92
     7
 72
     0
 73
     1
 93
     4
 10
44.475000
 20
212.350000
 10
45.200000
 20
212.350000
 10
45.200000
 20
150.975000
 10
44.475000
 20
150.975000
 97
     1
330
177
 75
     0
 76
     1
 47
0.651316
 98
     1
 10
0.0
 20
0.0
  0
LWPOLYLINE
  5
177
330
F6
100
AcDbEntity
  8
0
100
AcDbPolyline
 90
     4
 70
     1
 43
0.200000
 10
44.475000
 20
212.350000
 10
45.200000
 20
212.350000
 10
45.200000
 20
150.975000
 10
44.475000
 20
150.975000
  0
LWPOLYLINE
  5
182
100
AcDbEntity
  8
0
100
AcDbPolyline
 90
     6
 70
     0
 43
0.200000
 10
48.750000
 20
150.975000
 10
51.100000
 20
150.975000
 10
51.100000
 20
146.500000
 10
44.075000
 20
146.500000
 10
44.075000
 20
150.950000
 10
48.825000
 20
150.925000
  0
LWPOLYLINE
  5
191
100
AcDbEntity
  8
0
100
AcDbPolyline
 90
     4
 70
     1
 43
0.200000
 10
36.025000
 20
222.950000
 10
27.175000
 20
222.950000
 10
27.175000
 20
223.375000
 10
36.350000
 20
223.375000
  0
LWPOLYLINE
  5
19c
100
AcDbEntity
  8
0
100
AcDbPolyline
 90
     4
 70
     1
 43
0.200000
 10
43.550000
 20
216.175000
 10
43.550000
 20
144.475000
 10
43.025000
 20
144.225000
 10
43.025000
 20
215.950000
  0
ARC
  5
1a7
100
AcDbEntity
  8
0
370
    20
100
AcDbCircle
 10
36.050000
 20
215.950000
 40
7.000000
100
AcDbArc
 50
360.000000
 51
90.000000
  0
ARC
  5
1aa
100
AcDbEntity
  8
0
370
    20
100
AcDbCircle
 10
36.375000
 20
216.175000
 40
7.200000
100
AcDbArc
 50
360.000000
 51
90.000000
  0
HATCH
  5
1ad
330
F6
100
AcDbEntity
  8
0
100
AcDbHatch
 10
0.0
 20
0.0
 30
0.0
210
0.0
220
0.0
230
1.0
  2
SOLID
 70
     1
 71
     0
 91
     1
 92
     7
 72
     0
 73
     1
 93
     4
 10
50.000000
 20
212.350000
 10
50.725000
 20
212.350000
 10
50.725000
 20
150.975000
 10
50.000000
 20
150.975000
 97
     1
330
1b0
 75
     0
 76
     1
 47
0.651316
 98
     1
 10
0.0
 20
0.0
  0
LWPOLYLINE
  5
1b0
330
F6
100
AcDbEntity
  8
0
100
AcDbPolyline
 90
     4
 70
     1
 43
0.200000
 10
50.000000
 20
212.350000
 10
50.725000
 20
212.350000
 10
50.725000
 20
150.975000
 10
50.000000
 20
150.975000
  0
HATCH
  5
1bb
330
F6
100
AcDbEntity
  8
0
100
AcDbHatch
 10
0.0
 20
0.0
 30
0.0
210
0.0
220
0.0
230
1.0
  2
SOLID
 70
     1
 71
     0
 91
     1
 92
     7
 72
     0
 73
     1
 93
     4
 10
40.625000
 20
200.975000
 10
41.550000
 20
200.975000
 10
41.550000
 20
171.300000
 10
40.625000
 20
171.300000
 97
     1
330
1be
 75
     0
 76
     1
 47
0.651316
 98
     1
 10
0.0
 20
0.0
  0
LWPOLYLINE
  5
1be
330
F6
100
AcDbEntity
  8
0
100
AcDbPolyline
 90
     4
 70
     1
 43
0.200000
 10
40.625000
 20
200.975000
 10
41.550000
 20
200.975000
 10
41.550000
 20
171.300000
 10
40.625000
 20
171.300000
  0
LINE
  5
1c9
100
AcDbEntity
  8
0
370
    20
100
AcDbLine
 10
40.625000
 20
198.700000
 11
8.450000
 21
198.700000
  0
LINE
  5
1cc
100
AcDbEntity
  8
0
370
    20
100
AcDbLine
 10
53.950000
 20
198.700000
 11
82.825000
 21
198.700000
  0
LWPOLYLINE
  5
1cf
100
AcDbEntity
  8
0
100
AcDbPolyline
 90
     9
 70
     0
 43
0.200000
 10
41.175000
 20
171.350000
 10
41.575000
 20
169.950000
 10
41.775000
 20
155.575000
 10
41.675000
 20
142.975000
 10
41.675000
 20
103.700000
 10
53.325000
 20
103.700000
 10
53.225000
 20
149.100000
 10
53.225000
 20
170.475000
 10
53.450000
 20
171.300000
  0
LINE
  5
1e4
100
AcDbEntity
  8
0
370
    20
100
AcDbLine
 10
41.675000
 20
103.700000
 11
41.675000
 21
97.350000
  0
LINE
  5
1e7
100
AcDbEntity
  8
0
370
    20
100
AcDbLine
 10
53.325000
 20
103.700000
 11
53.325000
 21
97.450000
  0
LINE
  5
1ea
100
AcDbEntity
  8
0
370
    20
100
AcDbLine
 10
21.050000
 20
135.100000
 11
41.675000
 21
135.100000
  0
LINE
  5
1ed
100
AcDbEntity
  8
0
370
    20
100
AcDbLine
 10
53.225000
 20
135.100000
 11
82.700000
 21
135.100000
  0
LINE
  5
1f0
100
AcDbEntity
  8
0
370
    20
100
AcDbLine
 10
41.675000
 20
106.300000
 11
21.150000
 21
106.300000
  0
LINE
  5
1f3
100
AcDbEntity
  8
0
370
    20
100
AcDbLine
 10
53.325000
 20
106.300000
 11
82.600000
 21
106.300000
  0
LINE
  5
1f6
100
AcDbEntity
  8
0
370
    20
100
AcDbLine
 10
44.900000
 20
146.500000
 11
44.900000
 21
144.725000
  0
LINE
  5
1f9
100
AcDbEntity
  8
0
370
    20
100
AcDbLine
 10
50.000000
 20
144.725000
 11
50.000000
 21
146.500000
  0
HATCH
  5
1fc
330
F6
100
AcDbEntity
  8
0
100
AcDbHatch
 10
0.0
 20
0.0
 30
0.0
210
0.0
220
0.0
230
1.0
  2
SOLID
 70
     1
 71
     0
 91
     1
 92
     5
 93
     1
 72
     2
 10
47.575000
 20
131.200000
 40
0.725000
 50
0.000000
 51
360.000000
 73
     1
 97
     1
330
1ff
 75
     0
 76
     1
 47
0.651316
 98
     1
 10
0.0
 20
0.0
  0
CIRCLE
  5
1ff
100
AcDbEntity
  8
0
370
    20
100
AcDbCircle
 10
47.575000
 20
131.200000
 40
0.725000
  0
HATCH
  5
202
330
F6
100
AcDbEntity
  8
0
100
AcDbHatch
 10
0.0
 20
0.0
 30
0.0
210
0.0
220
0.0
230
1.0
  2
SOLID
 70
     1
 71
     0
 91
     1
 92
     5
 93
     1
 72
     2
 10
47.575000
 20
128.075000
 40
0.725000
 50
0.000000
 51
360.000000
 73
     1
 97
     1
330
205
 75
     0
 76
     1
 47
0.651316
 98
     1
 10
0.0
 20
0.0
  0
CIRCLE
  5
205
100
AcDbEntity
  8
0
370
    20
100
AcDbCircle
 10
47.575000
 20
128.075000
 40
0.725000
  0
HATCH
  5
208
330
F6
100
AcDbEntity
  8
0
100
AcDbHatch
 10
0.0
 20
0.0
 30
0.0
210
0.0
220
0.0
230
1.0
  2
SOLID
 70
     1
 71
     0
 91
     1
 92
     5
 93
     1
 72
     2
 10
47.575000
 20
124.950000
 40
0.725000
 50
0.000000
 51
360.000000
 73
     1
 97
     1
330
20b
 75
     0
 76
     1
 47
0.651316
 98
     1
 10
0.0
 20
0.0
  0
CIRCLE
  5
20b
100
AcDbEntity
  8
0
370
    20
100
AcDbCircle
 10
47.575000
 20
124.950000
 40
0.725000
  0
HATCH
  5
20e
330
F6
100
AcDbEntity
  8
0
100
AcDbHatch
 10
0.0
 20
0.0
 30
0.0
210
0.0
220
0.0
230
1.0
  2
SOLID
 70
     1
 71
     0
 91
     1
 92
     5
 93
     1
 72
     2
 10
47.575000
 20
121.825000
 40
0.725000
 50
0.000000
 51
360.000000
 73
     1
 97
     1
330
211
 75
     0
 76
     1
 47
0.651316
 98
     1
 10
0.0
 20
0.0
  0
CIRCLE
  5
211
100
AcDbEntity
  8
0
370
    20
100
AcDbCircle
 10
47.575000
 20
121.825000
 40
0.725000
  0
HATCH
  5
214
330
F6
100
AcDbEntity
  8
0
100
AcDbHatch
 10
0.0
 20
0.0
 30
0.0
210
0.0
220
0.0
230
1.0
  2
SOLID
 70
     1
 71
     0
 91
     1
 92
     5
 93
     3
 72
     3
 10
45.700000
 20
129.725000
 11
0.000000000000000
 21
1.025000
 40
0.804878
 50
180.000000
 51
0.000000
 73
     1
 72
     1
 10
45.725000
 20
130.750000
 11
45.700000
 21
129.725000
 72
     1
 10
45.700000
 20
129.725000
 11
45.725000
 21
128.675000
 97
     1
330
217
 75
     0
 76
     1
 47
0.651316
 98
     1
 10
0.0
 20
0.0
  0
ELLIPSE
  5
217
100
AcDbEntity
  8
0
370
    20
100
AcDbEllipse
 10
45.700000
 20
129.725000
 30
0.000000
 11
0.000000000000000
 21
1.025000
 31
0.000000
210
0.000000
220
0.000000
230
1.000000
 40
0.804878
 41
3.141593
 42
0.000000
  0
LINE
  5
21a
100
AcDbEntity
  8
0
370
    20
100
AcDbLine
 10
45.725000
 20
130.750000
 11
45.700000
 21
129.725000
  0
LINE
  5
21d
100
AcDbEntity
  8
0
370
    20
100
AcDbLine
 10
45.700000
 20
129.725000
 11
45.725000
 21
128.675000
  0
HATCH
  5
220
330
F6
100
AcDbEntity
  8
0
100
AcDbHatch
 10
0.0
 20
0.0
 30
0.0
210
0.0
220
0.0
230
1.0
  2
SOLID
 70
     1
 71
     0
 91
     1
 92
     5
 93
     3
 72
     3
 10
49.450000
 20
129.725000
 11
0.000000000000000
 21
1.025000
 40
0.804878
 50
0.000000
 51
180.000000
 73
     1
 72
     1
 10
49.475000
 20
128.675000
 11
49.450000
 21
129.725000
 72
     1
 10
49.450000
 20
129.725000
 11
49.475000
 21
130.750000
 97
     1
330
223
 75
     0
 76
     1
 47
0.651316
 98
     1
 10
0.0
 20
0.0
  0
ELLIPSE
  5
223
100
AcDbEntity
  8
0
370
    20
100
AcDbEllipse
 10
49.450000
 20
129.725000
 30
0.000000
 11
0.000000000000000
 21
1.025000
 31
0.000000
210
0.000000
220
0.000000
230
1.000000
 40
0.804878
 41
0.000000
 42
3.141593
  0
LINE
  5
226
100
AcDbEntity
  8
0
370
    20
100
AcDbLine
 10
49.475000
 20
128.675000
 11
49.450000
 21
129.725000
  0
LINE
  5
229
100
AcDbEntity
  8
0
370
    20
100
AcDbLine
 10
49.450000
 20
129.725000
 11
49.475000
 21
130.750000
  0
HATCH
  5
22c
330
F6
100
AcDbEntity
  8
0
100
AcDbHatch
 10
0.0
 20
0.0
 30
0.0
210
0.0
220
0.0
230
1.0
  2
SOLID
 70
     1
 71
     0
 91
     1
 92
     5
 93
     3
 72
     3
 10
45.700000
 20
126.500000
 11
0.000000000000000
 21
1.025000
 40
0.804878
 50
180.000000
 51
0.000000
 73
     1
 72
     1
 10
45.725000
 20
127.525000
 11
45.700000
 21
126.500000
 72
     1
 10
45.700000
 20
126.500000
 11
45.725000
 21
125.450000
 97
     1
330
22f
 75
     0
 76
     1
 47
0.651316
 98
     1
 10
0.0
 20
0.0
  0
ELLIPSE
  5
22f
100
AcDbEntity
  8
0
370
    20
100
AcDbEllipse
 10
45.700000
 20
126.500000
 30
0.000000
 11
0.000000000000000
 21
1.025000
 31
0.000000
210
0.000000
220
0.000000
230
1.000000
 40
0.804878
 41
3.141593
 42
0.000000
  0
LINE
  5
232
100
AcDbEntity
  8
0
370
    20
100
AcDbLine
 10
45.725000
 20
127.525000
 11
45.700000
 21
126.500000
  0
LINE
  5
235
100
AcDbEntity
  8
0
370
    20
100
AcDbLine
 10
45.700000
 20
126.500000
 11
45.725000
 21
125.450000
  0
HATCH
  5
238
330
F6
100
AcDbEntity
  8
0
100
AcDbHatch
 10
0.0
 20
0.0
 30
0.0
210
0.0
220
0.0
230
1.0
  2
SOLID
 70
     1
 71
     0
 91
     1
 92
     5
 93
     3
 72
     3
 10
49.450000
 20
126.500000
 11
0.000000000000000
 21
1.025000
 40
0.804878
 50
0.000000
 51
180.000000
 73
     1
 72
     1
 10
49.475000
 20
125.450000
 11
49.450000
 21
126.500000
 72
     1
 10
49.450000
 20
126.500000
 11
49.475000
 21
127.525000
 97
     1
330
23b
 75
     0
 76
     1
 47
0.651316
 98
     1
 10
0.0
 20
0.0
  0
ELLIPSE
  5
23b
100
AcDbEntity
  8
0
370
    20
100
AcDbEllipse
 10
49.450000
 20
126.500000
 30
0.000000
 11
0.000000000000000
 21
1.025000
 31
0.000000
210
0.000000
220
0.000000
230
1.000000
 40
0.804878
 41
0.000000
 42
3.141593
  0
LINE
  5
23e
100
AcDbEntity
  8
0
370
    20
100
AcDbLine
 10
49.475000
 20
125.450000
 11
49.450000
 21
126.500000
  0
LINE
  5
241
100
AcDbEntity
  8
0
370
    20
100
AcDbLine
 10
49.450000
 20
126.500000
 11
49.475000
 21
127.525000
  0
HATCH
  5
244
330
F6
100
AcDbEntity
  8
0
100
AcDbHatch
 10
0.0
 20
0.0
 30
0.0
210
0.0
220
0.0
230
1.0
  2
SOLID
 70
     1
 71
     0
 91
     1
 92
     5
 93
     3
 72
     3
 10
45.700000
 20
123.250000
 11
0.000000000000000
 21
1.025000
 40
0.804878
 50
180.000000
 51
0.000000
 73
     1
 72
     1
 10
45.725000
 20
124.275000
 11
45.700000
 21
123.250000
 72
     1
 10
45.700000
 20
123.250000
 11
45.725000
 21
122.200000
 97
     1
330
247
 75
     0
 76
     1
 47
0.651316
 98
     1
 10
0.0
 20
0.0
  0
ELLIPSE
  5
247
100
AcDbEntity
  8
0
370
    20
100
AcDbEllipse
 10
45.700000
 20
123.250000
 30
0.000000
 11
0.000000000000000
 21
1.025000
 31
0.000000
210
0.000000
220
0.000000
230
1.000000
 40
0.804878
 41
3.141593
 42
0.000000
  0
LINE
  5
24a
100
AcDbEntity
  8
0
370
    20
100
AcDbLine
 10
45.725000
 20
124.275000
 11
45.700000
 21
123.250000
  0
LINE
  5
24d
100
AcDbEntity
  8
0
370
    20
100
AcDbLine
 10
45.700000
 20
123.250000
 11
45.725000
 21
122.200000
  0
HATCH
  5
250
330
F6
100
AcDbEntity
  8
0
100
AcDbHatch
 10
0.0
 20
0.0
 30
0.0
210
0.0
220
0.0
230
1.0
  2
SOLID
 70
     1
 71
     0
 91
     1
 92
     5
 93
     3
 72
     3
 10
49.450000
 20
123.250000
 11
0.000000000000000
 21
1.025000
 40
0.804878
 50
0.000000
 51
180.000000
 73
     1
 72
     1
 10
49.475000
 20
122.200000
 11
49.450000
 21
123.250000
 72
     1
 10
49.450000
 20
123.250000
 11
49.475000
 21
124.275000
 97
     1
330
253
 75
     0
 76
     1
 47
0.651316
 98
     1
 10
0.0
 20
0.0
  0
ELLIPSE
  5
253
100
AcDbEntity
  8
0
370
    20
100
AcDbEllipse
 10
49.450000
 20
123.250000
 30
0.000000
 11
0.000000000000000
 21
1.025000
 31
0.000000
210
0.000000
220
0.000000
230
1.000000
 40
0.804878
 41
0.000000
 42
3.141593
  0
LINE
  5
256
100
AcDbEntity
  8
0
370
    20
100
AcDbLine
 10
49.475000
 20
122.200000
 11
49.450000
 21
123.250000
  0
LINE
  5
259
100
AcDbEntity
  8
0
370
    20
100
AcDbLine
 10
49.450000
 20
123.250000
 11
49.475000
 21
124.275000
  0
HATCH
  5
25c
330
F6
100
AcDbEntity
  8
0
100
AcDbHatch
 10
0.0
 20
0.0
 30
0.0
210
0.0
220
0.0
230
1.0
  2
SOLID
 70
     1
 71
     0
 91
     1
 92
     7
 72
     0
 73
     1
 93
     4
 10
47.050000
 20
151.275000
 10
46.500000
 20
154.275000
 10
48.650000
 20
154.275000
 10
48.150000
 20
151.275000
 97
     1
330
25f
 75
     0
 76
     1
 47
0.651316
 98
     1
 10
0.0
 20
0.0
  0
LWPOLYLINE
  5
25f
330
F6
100
AcDbEntity
  8
0
100
AcDbPolyline
 90
     4
 70
     1
 43
0.200000
 10
47.050000
 20
151.275000
 10
46.500000
 20
154.275000
 10
48.650000
 20
154.275000
 10
48.150000
 20
151.275000
  0
LWPOLYLINE
  5
26a
100
AcDbEntity
  8
0
100
AcDbPolyline
 90
     4
 70
     1
 43
0.200000
 10
47.050000
 20
151.275000
 10
46.500000
 20
154.275000
 10
48.650000
 20
154.275000
 10
48.150000
 20
151.275000
  0
HATCH
  5
275
330
F6
100
AcDbEntity
  8
0
100
AcDbHatch
 10
0.0
 20
0.0
 30
0.0
210
0.0
220
0.0
230
1.0
  2
SOLID
 70
     1
 71
     0
 91
     1
 92
     7
 72
     0
 73
     1
 93
     3
 10
48.050000
 20
150.675000
 10
47.625000
 20
148.125000
 10
47.175000
 20
150.675000
 97
     1
330
278
 75
     0
 76
     1
 47
0.651316
 98
     1
 10
0.0
 20
0.0
  0
LWPOLYLINE
  5
278
330
F6
100
AcDbEntity
  8
0
100
AcDbPolyline
 90
     3
 70
     1
 43
0.200000
 10
48.050000
 20
150.675000
 10
47.625000
 20
148.125000
 10
47.175000
 20
150.675000
  0
LWPOLYLINE
  5
281
100
AcDbEntity
  8
0
100
AcDbPolyline
 90
     3
 70
     1
 43
0.200000
 10
48.050000
 20
150.675000
 10
47.625000
 20
148.125000
 10
47.175000
 20
150.675000
  0
LINE
  5
28a
100
AcDbEntity
  8
0
370
    40
100
AcDbLine
 10
47.625000
 20
154.225000
 11
47.625000
 21
220.750000
  0
LINE
  5
28d
100
AcDbEntity
  8
0
370
    40
100
AcDbLine
 10
54.625000
 20
227.750000
 11
63.975000
 21
227.750000
  0
LINE
  5
290
100
AcDbEntity
  8
0
370
    40
100
AcDbLine
 10
67.975000
 20
223.750000
 11
67.975000
 21
222.600000
  0
ARC
  5
293
100
AcDbEntity
  8
0
370
    40
100
AcDbCircle
 10
54.625000
 20
220.750000
 40
7.000000
100
AcDbArc
 50
90.000000
 51
180.000000
  0
ARC
  5
296
100
AcDbEntity
  8
0
370
    40
100
AcDbCircle
 10
64.000000
 20
223.750000
 40
4.000000
100
AcDbArc
 50
360.000000
 51
90.000000
  0
POINT
  5
299
100
AcDbEntity
  8
0
100
AcDbPoint
 10
47.625000
 20
155.675000
  0
POINT
  5
29c
100
AcDbEntity
  8
0
100
AcDbPoint
 10
47.625000
 20
160.575000
  0
POINT
  5
29f
100
AcDbEntity
  8
0
100
AcDbPoint
 10
47.625000
 20
165.575000
  0
LWPOLYLINE
  5
2a2
100
AcDbEntity
  8
0
  6
DOT
 62
     7
100
AcDbPolyline
 90
     5
 70
     0
 43
0.200000
 10
46.450000
 20
150.975000
 10
47.225000
 20
147.750000
 10
47.225000
 20
145.800000
 10
46.250000
 20
142.200000
 10
46.250000
 20
120.525000
  0
LWPOLYLINE
  5
2af
100
AcDbEntity
  8
0
  6
DOT
 62
     7
100
AcDbPolyline
 90
     5
 70
     0
 43
0.200000
 10
48.825000
 20
150.975000
 10
48.050000
 20
147.750000
 10
48.050000
 20
145.800000
 10
49.025000
 20
142.200000
 10
49.025000
 20
120.525000
  0
LINE
  5
2bc
100
AcDbEntity
  8
0
370
    40
100
AcDbLine
 10
47.625000
 20
147.600000
 11
47.625000
 21
143.250000
  0
HATCH
  5
2bf
330
F6
100
AcDbEntity
  8
0
100
AcDbHatch
 10
0.0
 20
0.0
 30
0.0
210
0.0
220
0.0
230
1.0
  2
SOLID
 70
     1
 71
     0
 91
     1
 92
     7
 72
     0
 73
     1
 93
     3
 10
47.125000
 20
143.250000
 10
47.625000
 20
144.725000
 10
48.150000
 20
143.250000
 97
     1
330
2c2
 75
     0
 76
     1
 47
0.651316
 98
     1
 10
0.0
 20
0.0
  0
LWPOLYLINE
  5
2c2
330
F6
100
AcDbEntity
  8
0
100
AcDbPolyline
 90
     3
 70
     1
 43
0.400000
 10
47.125000
 20
143.250000
 10
47.625000
 20
144.725000
 10
48.150000
 20
143.250000
  0
LINE
  5
2cb
100
AcDbEntity
  8
0
370
    20
100
AcDbLine
 10
44.575000
 20
150.525000
 11
44.575000
 21
146.975000
  0
LINE
  5
2ce
100
AcDbEntity
  8
0
370
    20
100
AcDbLine
 10
45.150000
 20
150.350000
 11
45.150000
 21
147.200000
  0
LINE
  5
2d1
100
AcDbEntity
  8
0
370
    20
100
AcDbLine
 10
45.975000
 20
150.050000
 11
45.975000
 21
147.550000
  0
LINE
  5
2d4
100
AcDbEntity
  8
0
370
    20
100
AcDbLine
 10
42.100000
 20
142.950000
 11
42.100000
 21
135.550000
  0
LINE
  5
2d7
100
AcDbEntity
  8
0
370
    20
100
AcDbLine
 10
42.625000
 20
142.775000
 11
42.625000
 21
135.675000
  0
LINE
  5
2da
100
AcDbEntity
  8
0
370
    20
100
AcDbLine
 10
43.325000
 20
142.600000
 11
43.325000
 21
135.800000
  0
LINE
  5
2dd
100
AcDbEntity
  8
0
370
    20
100
AcDbLine
 10
44.325000
 20
142.325000
 11
44.325000
 21
136.025000
  0
LINE
  5
2e0
100
AcDbEntity
  8
0
370
    20
100
AcDbLine
 10
45.625000
 20
141.975000
 11
45.625000
 21
136.450000
  0
LINE
  5
2e3
100
AcDbEntity
  8
0
370
    20
100
AcDbLine
 10
43.325000
 20
144.000000
 11
51.475000
 21
144.000000
  0
LINE
  5
2e6
100
AcDbEntity
  8
0
370
    20
100
AcDbLine
 10
43.900000
 20
134.550000
 11
51.200000
 21
134.550000
  0
LINE
  5
2e9
100
AcDbEntity
  8
0
370
    20
100
AcDbLine
 10
50.675000
 20
150.525000
 11
50.675000
 21
146.975000
  0
LINE
  5
2ec
100
AcDbEntity
  8
0
370
    20
100
AcDbLine
 10
50.100000
 20
150.350000
 11
50.100000
 21
147.200000
  0
LINE
  5
2ef
100
AcDbEntity
  8
0
370
    20
100
AcDbLine
 10
49.275000
 20
150.050000
 11
49.275000
 21
147.550000
  0
LINE
  5
2f2
100
AcDbEntity
  8
0
370
    20
100
AcDbLine
 10
52.900000
 20
142.950000
 11
52.900000
 21
135.550000
  0
LINE
  5
2f5
100
AcDbEntity
  8
0
370
    20
100
AcDbLine
 10
52.375000
 20
142.775000
 11
52.375000
 21
135.675000
  0
LINE
  5
2f8
100
AcDbEntity
  8
0
370
    20
100
AcDbLine
 10
51.675000
 20
142.600000
 11
51.675000
 21
135.800000
  0
LINE
  5
2fb
100
AcDbEntity
  8
0
370
    20
100
AcDbLine
 10
50.675000
 20
142.325000
 11
50.675000
 21
136.025000
  0
LINE
  5
2fe
100
AcDbEntity
  8
0
370
    20
100
AcDbLine
 10
49.375000
 20
141.975000
 11
49.375000
 21
136.450000
  0
LINE
  5
301
100
AcDbEntity
  8
0
370
    20
100
AcDbLine
 10
40.625000
 20
198.700000
 11
36.725000
 21
194.825000
  0
LINE
  5
304
100
AcDbEntity
  8
0
370
    20
100
AcDbLine
 10
35.625000
 20
198.700000
 11
31.725000
 21
194.825000
  0
LINE
  5
307
100
AcDbEntity
  8
0
370
    20
100
AcDbLine
 10
30.625000
 20
198.700000
 11
26.725000
 21
194.825000
  0
LINE
  5
30a
100
AcDbEntity
  8
0
370
    20
100
AcDbLine
 10
25.625000
 20
198.700000
 11
21.725000
 21
194.825000
  0
LINE
  5
30d
100
AcDbEntity
  8
0
370
    20
100
AcDbLine
 10
20.625000
 20
198.700000
 11
16.725000
 21
194.825000
  0
LINE
  5
310
100
AcDbEntity
  8
0
370
    20
100
AcDbLine
 10
15.625000
 20
198.700000
 11
11.725000
 21
194.825000
  0
LINE
  5
313
100
AcDbEntity
  8
0
370
    20
100
AcDbLine
 10
10.625000
 20
198.700000
 11
8.450000
 21
196.525000
  0
LINE
  5
316
100
AcDbEntity
  8
0
370
    20
100
AcDbLine
 10
82.975000
 20
198.700000
 11
79.075000
 21
194.825000
  0
LINE
  5
319
100
AcDbEntity
  8
0
370
    20
100
AcDbLine
 10
77.975000
 20
198.700000
 11
74.075000
 21
194.825000
  0
LINE
  5
31c
100
AcDbEntity
  8
0
370
    20
100
AcDbLine
 10
72.975000
 20
198.700000
 11
69.075000
 21
194.825000
  0
LINE
  5
31f
100
AcDbEntity
  8
0
370
    20
100
AcDbLine
 10
67.975000
 20
198.700000
 11
64.075000
 21
194.825000
  0
LINE
  5
322
100
AcDbEntity
  8
0
370
    20
100
AcDbLine
 10
62.975000
 20
198.700000
 11
59.075000
 21
194.825000
  0
LINE
  5
325
100
AcDbEntity
  8
0
370
    20
100
AcDbLine
 10
57.975000
 20
198.700000
 11
54.075000
 21
194.825000
  0
LINE
  5
328
100
AcDbEntity
  8
0
370
    20
100
AcDbLine
 10
40.625000
 20
194.025000
 11
36.725000
 21
190.150000
  0
LINE
  5
32b
100
AcDbEntity
  8
0
370
    20
100
AcDbLine
 10
40.625000
 20
189.350000
 11
36.725000
 21
185.475000
  0
LINE
  5
32e
100
AcDbEntity
  8
0
370
    20
100
AcDbLine
 10
40.625000
 20
184.675000
 11
36.725000
 21
180.800000
  0
LINE
  5
331
100
AcDbEntity
  8
0
370
    20
100
AcDbLine
 10
40.625000
 20
180.000000
 11
36.725000
 21
176.125000
  0
LINE
  5
334
100
AcDbEntity
  8
0
370
    20
100
AcDbLine
 10
40.625000
 20
175.325000
 11
36.725000
 21
171.450000
  0
LINE
  5
337
100
AcDbEntity
  8
0
370
    20
100
AcDbLine
 10
41.100000
 20
171.300000
 11
36.725000
 21
166.775000
  0
LINE
  5
33a
100
AcDbEntity
  8
0
370
    20
100
AcDbLine
 10
41.725000
 20
167.075000
 11
36.725000
 21
162.100000
  0
LINE
  5
33d
100
AcDbEntity
  8
0
370
    20
100
AcDbLine
 10
41.725000
 20
162.400000
 11
36.725000
 21
157.425000
  0
LINE
  5
340
100
AcDbEntity
  8
0
370
    20
100
AcDbLine
 10
41.575000
 20
157.400000
 11
36.725000
 21
152.750000
  0
LINE
  5
343
100
AcDbEntity
  8
0
370
    20
100
AcDbLine
 10
41.725000
 20
153.175000
 11
36.725000
 21
148.075000
  0
LINE
  5
346
100
AcDbEntity
  8
0
370
    20
100
AcDbLine
 10
41.400000
 20
148.325000
 11
36.725000
 21
143.400000
  0
LINE
  5
349
100
AcDbEntity
  8
0
370
    20
100
AcDbLine
 10
41.575000
 20
143.650000
 11
36.725000
 21
138.725000
  0
LINE
  5
34c
100
AcDbEntity
  8
0
370
    20
100
AcDbLine
 10
41.400000
 20
138.800000
 11
36.725000
 21
134.050000
  0
LINE
  5
34f
100
AcDbEntity
  8
0
370
    20
100
AcDbLine
 10
41.575000
 20
134.275000
 11
36.725000
 21
129.375000
  0
LINE
  5
352
100
AcDbEntity
  8
0
370
    20
100
AcDbLine
 10
41.575000
 20
129.575000
 11
36.725000
 21
124.700000
  0
LINE
  5
355
100
AcDbEntity
  8
0
370
    20
100
AcDbLine
 10
41.400000
 20
124.725000
 11
36.725000
 21
120.025000
  0
LINE
  5
358
100
AcDbEntity
  8
0
370
    20
100
AcDbLine
 10
41.400000
 20
120.050000
 11
36.725000
 21
115.350000
  0
LINE
  5
35b
100
AcDbEntity
  8
0
370
    20
100
AcDbLine
 10
41.575000
 20
115.525000
 11
36.725000
 21
110.675000
  0
LINE
  5
35e
100
AcDbEntity
  8
0
370
    20
100
AcDbLine
 10
41.575000
 20
110.825000
 11
36.725000
 21
106.000000
  0
LINE
  5
361
100
AcDbEntity
  8
0
370
    20
100
AcDbLine
 10
41.575000
 20
106.150000
 11
36.725000
 21
101.325000
  0
LINE
  5
364
100
AcDbEntity
  8
0
370
    20
100
AcDbLine
 10
44.075000
 20
103.800000
 11
40.000000
 21
99.900000
  0
LINE
  5
367
100
AcDbEntity
  8
0
370
    20
100
AcDbLine
 10
48.275000
 20
103.500000
 11
44.375000
 21
99.625000
  0
LINE
  5
36a
100
AcDbEntity
  8
0
370
    20
100
AcDbLine
 10
57.975000
 20
193.700000
 11
54.075000
 21
189.825000
  0
LINE
  5
36d
100
AcDbEntity
  8
0
370
    20
100
AcDbLine
 10
57.975000
 20
188.700000
 11
54.075000
 21
184.825000
  0
LINE
  5
370
100
AcDbEntity
  8
0
370
    20
100
AcDbLine
 10
57.975000
 20
183.700000
 11
54.075000
 21
179.825000
  0
LINE
  5
373
100
AcDbEntity
  8
0
370
    20
100
AcDbLine
 10
57.975000
 20
178.700000
 11
54.075000
 21
174.825000
  0
LINE
  5
376
100
AcDbEntity
  8
0
370
    20
100
AcDbLine
 10
57.975000
 20
173.700000
 11
53.125000
 21
168.800000
  0
LINE
  5
379
100
AcDbEntity
  8
0
370
    20
100
AcDbLine
 10
57.975000
 20
168.700000
 11
53.125000
 21
163.950000
  0
LINE
  5
37c
100
AcDbEntity
  8
0
370
    20
100
AcDbLine
 10
57.975000
 20
163.700000
 11
53.275000
 21
158.950000
  0
LINE
  5
37f
100
AcDbEntity
  8
0
370
    20
100
AcDbLine
 10
57.975000
 20
158.700000
 11
53.125000
 21
153.950000
  0
LINE
  5
382
100
AcDbEntity
  8
0
370
    20
100
AcDbLine
 10
57.975000
 20
153.700000
 11
52.975000
 21
148.800000
  0
LINE
  5
385
100
AcDbEntity
  8
0
370
    20
100
AcDbLine
 10
57.975000
 20
148.700000
 11
53.275000
 21
144.100000
  0
LINE
  5
388
100
AcDbEntity
  8
0
370
    20
100
AcDbLine
 10
57.975000
 20
143.700000
 11
53.125000
 21
139.100000
  0
LINE
  5
38b
100
AcDbEntity
  8
0
370
    20
100
AcDbLine
 10
57.975000
 20
138.700000
 11
53.275000
 21
133.950000
  0
LINE
  5
38e
100
AcDbEntity
  8
0
370
    20
100
AcDbLine
 10
57.975000
 20
133.700000
 11
53.275000
 21
129.100000
  0
LINE
  5
391
100
AcDbEntity
  8
0
370
    20
100
AcDbLine
 10
57.975000
 20
128.700000
 11
53.275000
 21
124.425000
  0
LINE
  5
394
100
AcDbEntity
  8
0
370
    20
100
AcDbLine
 10
57.975000
 20
123.700000
 11
53.275000
 21
119.425000
  0
LINE
  5
397
100
AcDbEntity
  8
0
370
    20
100
AcDbLine
 10
57.975000
 20
118.700000
 11
53.275000
 21
114.100000
  0
LINE
  5
39a
100
AcDbEntity
  8
0
370
    20
100
AcDbLine
 10
57.975000
 20
113.700000
 11
53.275000
 21
109.100000
  0
LINE
  5
39d
100
AcDbEntity
  8
0
370
    20
100
AcDbLine
 10
57.975000
 20
108.700000
 11
53.275000
 21
104.100000
  0
LINE
  5
3a0
100
AcDbEntity
  8
0
370
    20
100
AcDbLine
 10
57.975000
 20
103.700000
 11
54.075000
 21
99.825000
  0
LINE
  5
3a3
100
AcDbEntity
  8
0
370
    20
100
AcDbLine
 10
52.725000
 20
103.775000
 11
48.825000
 21
99.900000
  0
LINE
  5
3a6
100
AcDbEntity
  8
0
370
    20
100
AcDbLine
 10
37.025000
 20
135.200000
 11
41.575000
 21
130.650000
  0
LINE
  5
3a9
100
AcDbEntity
  8
0
370
    20
100
AcDbLine
 10
36.875000
 20
130.250000
 11
41.575000
 21
125.975000
  0
LINE
  5
3ac
100
AcDbEntity
  8
0
370
    20
100
AcDbLine
 10
36.875000
 20
125.250000
 11
41.575000
 21
120.975000
  0
LINE
  5
3af
100
AcDbEntity
  8
0
370
    20
100
AcDbLine
 10
36.875000
 20
120.250000
 11
41.575000
 21
115.650000
  0
LINE
  5
3b2
100
AcDbEntity
  8
0
370
    20
100
AcDbLine
 10
36.875000
 20
115.250000
 11
41.575000
 21
110.650000
  0
LINE
  5
3b5
100
AcDbEntity
  8
0
370
    20
100
AcDbLine
 10
36.875000
 20
110.250000
 11
40.950000
 21
106.300000
  0
LINE
  5
3b8
100
AcDbEntity
  8
0
370
    20
100
AcDbLine
 10
53.425000
 20
134.800000
 11
58.125000
 21
130.200000
  0
LINE
  5
3bb
100
AcDbEntity
  8
0
370
    20
100
AcDbLine
 10
53.425000
 20
129.800000
 11
58.125000
 21
125.525000
  0
LINE
  5
3be
100
AcDbEntity
  8
0
370
    20
100
AcDbLine
 10
53.425000
 20
124.800000
 11
58.125000
 21
120.525000
  0
LINE
  5
3c1
100
AcDbEntity
  8
0
370
    20
100
AcDbLine
 10
53.425000
 20
119.800000
 11
58.125000
 21
115.200000
  0
LINE
  5
3c4
100
AcDbEntity
  8
0
370
    20
100
AcDbLine
 10
53.425000
 20
114.800000
 11
58.125000
 21
110.200000
  0
LINE
  5
3c7
100
AcDbEntity
  8
0
370
    20
100
AcDbLine
 10
53.425000
 20
109.800000
 11
57.200000
 21
106.300000
  0
POINT
  5
3ca
100
AcDbEntity
  8
0
100
AcDbPoint
 10
47.625000
 20
171.300000
  0
POINT
  5
3cd
100
AcDbEntity
  8
0
100
AcDbPoint
 10
47.625000
 20
176.200000
  0
POINT
  5
3d0
100
AcDbEntity
  8
0
100
AcDbPoint
 10
47.625000
 20
181.200000
  0
POINT
  5
3d3
100
AcDbEntity
  8
0
100
AcDbPoint
 10
47.625000
 20
187.700000
  0
POINT
  5
3d6
100
AcDbEntity
  8
0
100
AcDbPoint
 10
47.625000
 20
192.700000
  0
POINT
  5
3d9
100
AcDbEntity
  8
0
100
AcDbPoint
 10
47.625000
 20
198.425000
  0
POINT
  5
3dc
100
AcDbEntity
  8
0
100
AcDbPoint
 10
47.625000
 20
203.325000
  0
POINT
  5
3df
100
AcDbEntity
  8
0
100
AcDbPoint
 10
47.625000
 20
208.325000
  0
POINT
  5
3e2
100
AcDbEntity
  8
0
100
AcDbPoint
 10
47.625000
 20
158.125000
  0
POINT
  5
3e5
100
AcDbEntity
  8
0
100
AcDbPoint
 10
47.625000
 20
163.025000
  0
POINT
  5
3e8
100
AcDbEntity
  8
0
100
AcDbPoint
 10
47.625000
 20
168.575000
  0
POINT
  5
3eb
100
AcDbEntity
  8
0
100
AcDbPoint
 10
47.625000
 20
173.475000
  0
MTEXT
  5
3ee
100
AcDbEntity
  8
0
100
AcDbMText
 10
80.400000
 20
215.875000
 40
1.856250
 41
26.730000
 71
     1
 72
     5
  1
\fＭＳ ゴシック|b0|i0|c128|p49;\H1.8563;\T1.0200;電源(ハ　ッテリー\T1.0109;)
 44
0.966643
 73
     1
  7
BIGFONT
  0
LINE
  5
3f1
100
AcDbEntity
  8
0
370
    20
100
AcDbLine
 10
87.475000
 20
222.325000
 11
93.825000
 21
222.325000
  0
LINE
  5
3f4
100
AcDbEntity
  8
0
370
    20
100
AcDbLine
 10
94.075000
 20
222.075000
 11
94.075000
 21
216.125000
  0
LINE
  5
3f7
100
AcDbEntity
  8
0
370
    20
100
AcDbLine
 10
93.825000
 20
215.875000
 11
87.475000
 21
215.875000
  0
LINE
  5
3fa
100
AcDbEntity
  8
0
370
    20
100
AcDbLine
 10
87.225000
 20
216.125000
 11
87.225000
 21
222.075000
  0
ARC
  5
3fd
100
AcDbEntity
  8
0
370
    20
100
AcDbCircle
 10
93.800000
 20
222.050000
 40
0.250000
100
AcDbArc
 50
360.000000
 51
90.000000
  0
ARC
  5
400
100
AcDbEntity
  8
0
370
    20
100
AcDbCircle
 10
93.800000
 20
216.150000
 40
0.250000
100
AcDbArc
 50
270.000000
 51
360.000000
  0
ARC
  5
403
100
AcDbEntity
  8
0
370
    20
100
AcDbCircle
 10
87.475000
 20
216.150000
 40
0.250000
100
AcDbArc
 50
180.000000
 51
270.000000
  0
ARC
  5
406
100
AcDbEntity
  8
0
370
    20
100
AcDbCircle
 10
87.475000
 20
222.050000
 40
0.250000
100
AcDbArc
 50
90.000000
 51
180.000000
  0
SPLINE
  5
409
100
AcDbEntity
  8
0
370
    20
100
AcDbSpline
210
0.000000
220
0.000000
230
1.000000
 70
     8
 71
     3
 72
    11
 73
     7
 74
     0
 42
0.0000001
 43
0.0000001
 44
0.0000000001
 40
0.000000
 40
0.000000
 40
0.000000
 40
0.000000
 40
2.151308
 40
2.151308
 40
2.151308
 40
4.977303
 40
4.977303
 40
4.977303
 40
4.977303
 10
88.275000
 20
222.700000
 30
0.000000
 10
88.050000
 20
222.975000
 30
0.000000
 10
87.625000
 20
224.100000
 30
0.000000
 10
86.925000
 20
224.375000
 30
0.000000
 10
86.250000
 20
224.625000
 30
0.000000
 10
84.575000
 20
224.300000
 30
0.000000
 10
84.100000
 20
224.300000
 30
0.000000
  0
SPLINE
  5
40c
100
AcDbEntity
  8
0
370
    20
100
AcDbSpline
210
0.000000
220
0.000000
230
1.000000
 70
     8
 71
     3
 72
    11
 73
     7
 74
     0
 42
0.0000001
 43
0.0000001
 44
0.0000000001
 40
0.000000
 40
0.000000
 40
0.000000
 40
0.000000
 40
4.590820
 40
4.590820
 40
4.590820
 40
9.926607
 40
9.926607
 40
9.926607
 40
9.926607
 10
92.800000
 20
222.600000
 30
0.000000
 10
92.225000
 20
223.100000
 30
0.000000
 10
90.775000
 20
225.300000
 30
0.000000
 10
89.325000
 20
225.600000
 30
0.000000
 10
87.900000
 20
225.875000
 30
0.000000
 10
85.025000
 20
224.500000
 30
0.000000
 10
84.150000
 20
224.300000
 30
0.000000
  0
SPLINE
  5
40f
100
AcDbEntity
  8
0
370
    40
100
AcDbSpline
210
0.000000
220
0.000000
230
1.000000
 70
     8
 71
     3
 72
    14
 73
    10
 74
     0
 42
0.0000001
 43
0.0000001
 44
0.0000000001
 40
0.000000
 40
0.000000
 40
0.000000
 40
0.000000
 40
2.432720
 40
2.432720
 40
2.432720
 40
5.412862
 40
5.412862
 40
5.412862
 40
11.764634
 40
11.764634
 40
11.764634
 40
11.764634
 10
72.975000
 20
222.750000
 30
0.000000
 10
73.300000
 20
223.000000
 30
0.000000
 10
74.050000
 20
224.000000
 30
0.000000
 10
74.850000
 20
224.300000
 30
0.000000
 10
75.675000
 20
224.575000
 30
0.000000
 10
76.275000
 20
224.450000
 30
0.000000
 10
77.825000
 20
224.475000
 30
0.000000
 10
79.400000
 20
224.475000
 30
0.000000
 10
83.125000
 20
224.350000
 30
0.000000
 10
84.175000
 20
224.325000
 30
0.000000
  0
LINE
  5
412
100
AcDbEntity
  8
0
370
    20
100
AcDbLine
 10
87.425000
 20
221.950000
 11
93.775000
 21
221.950000
  0
LINE
  5
415
100
AcDbEntity
  8
0
370
    20
100
AcDbLine
 10
88.725000
 20
221.025000
 11
88.725000
 21
216.775000
  0
LINE
  5
418
100
AcDbEntity
  8
0
370
    20
100
AcDbLine
 10
90.650000
 20
221.025000
 11
90.650000
 21
216.775000
  0
LINE
  5
41b
100
AcDbEntity
  8
0
370
    20
100
AcDbLine
 10
92.575000
 20
221.025000
 11
92.575000
 21
216.775000
  0
LINE
  5
41e
100
AcDbEntity
  8
0
370
    20
100
AcDbLine
 10
92.550000
 20
222.325000
 11
92.550000
 21
222.675000
  0
LINE
  5
421
100
AcDbEntity
  8
0
370
    20
100
AcDbLine
 10
92.775000
 20
222.900000
 11
93.000000
 21
222.900000
  0
LINE
  5
424
100
AcDbEntity
  8
0
370
    20
100
AcDbLine
 10
93.200000
 20
222.675000
 11
93.200000
 21
222.325000
  0
ARC
  5
427
100
AcDbEntity
  8
0
370
    20
100
AcDbCircle
 10
92.800000
 20
222.650000
 40
0.225000
100
AcDbArc
 50
90.000000
 51
180.000000
  0
ARC
  5
42a
100
AcDbEntity
  8
0
370
    20
100
AcDbCircle
 10
92.975000
 20
222.650000
 40
0.225000
100
AcDbArc
 50
360.000000
 51
90.000000
  0
HATCH
  5
42d
330
F6
100
AcDbEntity
  8
0
100
AcDbHatch
 10
0.0
 20
0.0
 30
0.0
210
0.0
220
0.0
230
1.0
  2
SOLID
 70
     1
 71
     0
 91
     1
 92
     7
 72
     0
 73
     1
 93
     8
 10
92.575000
 20
222.325000
 10
92.575000
 20
222.650000
 10
92.650000
 20
222.825000
 10
92.750000
 20
222.875000
 10
92.900000
 20
222.900000
 10
93.100000
 20
222.850000
 10
93.200000
 20
222.700000
 10
93.200000
 20
222.325000
 97
     1
330
430
 75
     0
 76
     1
 47
0.651316
 98
     1
 10
0.0
 20
0.0
  0
LWPOLYLINE
  5
430
330
F6
100
AcDbEntity
  8
0
100
AcDbPolyline
 90
     8
 70
     1
 43
0.200000
 10
92.575000
 20
222.325000
 10
92.575000
 20
222.650000
 10
92.650000
 20
222.825000
 10
92.750000
 20
222.875000
 10
92.900000
 20
222.900000
 10
93.100000
 20
222.850000
 10
93.200000
 20
222.700000
 10
93.200000
 20
222.325000
  0
LINE
  5
443
100
AcDbEntity
  8
0
370
    20
100
AcDbLine
 10
88.075000
 20
222.325000
 11
88.075000
 21
222.675000
  0
LINE
  5
446
100
AcDbEntity
  8
0
370
    20
100
AcDbLine
 10
88.300000
 20
222.900000
 11
88.525000
 21
222.900000
  0
LINE
  5
449
100
AcDbEntity
  8
0
370
    20
100
AcDbLine
 10
88.725000
 20
222.675000
 11
88.725000
 21
222.325000
  0
ARC
  5
44c
100
AcDbEntity
  8
0
370
    20
100
AcDbCircle
 10
88.325000
 20
222.650000
 40
0.225000
100
AcDbArc
 50
90.000000
 51
180.000000
  0
ARC
  5
44f
100
AcDbEntity
  8
0
370
    20
100
AcDbCircle
 10
88.500000
 20
222.650000
 40
0.225000
100
AcDbArc
 50
360.000000
 51
90.000000
  0
HATCH
  5
452
330
F6
100
AcDbEntity
  8
0
100
AcDbHatch
 10
0.0
 20
0.0
 30
0.0
210
0.0
220
0.0
230
1.0
  2
SOLID
 70
     1
 71
     0
 91
     1
 92
     7
 72
     0
 73
     1
 93
     8
 10
88.100000
 20
222.325000
 10
88.100000
 20
222.650000
 10
88.175000
 20
222.825000
 10
88.275000
 20
222.875000
 10
88.425000
 20
222.900000
 10
88.625000
 20
222.850000
 10
88.725000
 20
222.700000
 10
88.725000
 20
222.325000
 97
     1
330
455
 75
     0
 76
     1
 47
0.651316
 98
     1
 10
0.0
 20
0.0
  0
LWPOLYLINE
  5
455
330
F6
100
AcDbEntity
  8
0
100
AcDbPolyline
 90
     8
 70
     1
 43
0.200000
 10
88.100000
 20
222.325000
 10
88.100000
 20
222.650000
 10
88.175000
 20
222.825000
 10
88.275000
 20
222.875000
 10
88.425000
 20
222.900000
 10
88.625000
 20
222.850000
 10
88.725000
 20
222.700000
 10
88.725000
 20
222.325000
  0
LWPOLYLINE
  5
468
100
AcDbEntity
  8
0
100
AcDbPolyline
 90
     4
 70
     1
 43
0.400000
 10
65.600000
 20
222.550000
 10
65.600000
 20
207.200000
 10
76.250000
 20
207.200000
 10
76.250000
 20
222.550000
  0
LINE
  5
473
100
AcDbEntity
  8
0
370
    20
100
AcDbLine
 10
71.575000
 20
222.600000
 11
71.575000
 21
207.200000
  0
LINE
  5
476
100
AcDbEntity
  8
0
370
    20
100
AcDbLine
 10
66.875000
 20
222.550000
 11
66.875000
 21
207.200000
  0
LINE
  5
479
100
AcDbEntity
  8
0
370
    20
100
AcDbLine
 10
75.400000
 20
222.550000
 11
75.400000
 21
207.200000
  0
POINT
  5
47c
100
AcDbEntity
  8
0
100
AcDbPoint
 10
73.700000
 20
220.000000
  0
POINT
  5
47f
100
AcDbEntity
  8
0
100
AcDbPoint
 10
73.700000
 20
217.450000
  0
POINT
  5
482
100
AcDbEntity
  8
0
100
AcDbPoint
 10
73.700000
 20
209.325000
  0
LINE
  5
485
100
AcDbEntity
  8
0
370
    20
100
AcDbLine
 10
66.875000
 20
215.300000
 11
71.575000
 21
215.300000
  0
LINE
  5
488
100
AcDbEntity
  8
0
370
    20
100
AcDbLine
 10
66.875000
 20
221.675000
 11
71.575000
 21
221.675000
  0
LINE
  5
48b
100
AcDbEntity
  8
0
370
    20
100
AcDbLine
 10
66.875000
 20
208.050000
 11
71.575000
 21
208.050000
  0
LINE
  5
48e
100
AcDbEntity
  8
0
370
    40
100
AcDbLine
 10
68.150000
 20
216.125000
 11
69.875000
 21
216.125000
  0
MTEXT
  5
491
100
AcDbEntity
  8
0
100
AcDbMText
 10
60.425000
 20
205.775000
 40
1.856250
 41
28.957500
 71
     1
 72
     5
  1
\fＭＳ ゴシック|b0|i0|c128|p49;\T1.3629;増幅器・記録\T1.8813;器
 44
1.226497
 73
     1
  7
BIGFONT
  0
CIRCLE
  5
494
100
AcDbEntity
  8
0
370
    20
100
AcDbCircle
 10
30.500000
 20
219.425000
 40
2.575000
  0
CIRCLE
  5
497
100
AcDbEntity
  8
0
370
    20
100
AcDbCircle
 10
30.500000
 20
219.425000
 40
3.025000
  0
CIRCLE
  5
49a
100
AcDbEntity
  8
0
370
    20
100
AcDbCircle
 10
30.500000
 20
226.725000
 40
2.575000
  0
CIRCLE
  5
49d
100
AcDbEntity
  8
0
370
    20
100
AcDbCircle
 10
30.500000
 20
226.725000
 40
3.050000
  0
CIRCLE
  5
4a0
100
AcDbEntity
  8
0
370
    20
100
AcDbCircle
 10
25.550000
 20
223.300000
 40
1.700000
  0
ARC
  5
4a3
100
AcDbEntity
  8
0
370
    40
100
AcDbCircle
 10
20.400000
 20
201.375000
 40
2.575000
100
AcDbArc
 50
180.000000
 51
360.000000
  0
ARC
  5
4a6
100
AcDbEntity
  8
0
370
    40
100
AcDbCircle
 10
20.400000
 20
219.425000
 40
2.575000
100
AcDbArc
 50
360.000000
 51
180.000000
  0
LINE
  5
4a9
100
AcDbEntity
  8
0
370
    40
100
AcDbLine
 10
22.975000
 20
201.375000
 11
22.975000
 21
219.425000
  0
LINE
  5
4ac
100
AcDbEntity
  8
0
370
    40
100
AcDbLine
 10
17.825000
 20
219.425000
 11
17.825000
 21
201.375000
  0
LWPOLYLINE
  5
4af
100
AcDbEntity
  8
0
100
AcDbPolyline
 90
     4
 70
     1
 43
0.400000
 10
21.700000
 20
225.025000
 10
21.700000
 20
222.000000
 10
19.100000
 20
222.000000
 10
19.100000
 20
225.025000
  0
LINE
  5
4ba
100
AcDbEntity
  8
0
370
    40
100
AcDbLine
 10
27.075000
 20
224.200000
 11
28.125000
 21
224.950000
  0
LINE
  5
4bd
100
AcDbEntity
  8
0
370
    40
100
AcDbLine
 10
26.950000
 20
222.275000
 11
28.175000
 21
221.275000
  0
LINE
  5
4c0
100
AcDbEntity
  8
0
370
    40
100
AcDbLine
 10
25.550000
 20
226.325000
 11
25.550000
 21
225.025000
  0
LINE
  5
4c3
100
AcDbEntity
  8
0
370
    40
100
AcDbLine
 10
23.900000
 20
223.300000
 11
21.700000
 21
223.300000
  0
LINE
  5
4c6
100
AcDbEntity
  8
0
370
    40
100
AcDbLine
 10
20.400000
 20
225.025000
 11
20.400000
 21
226.325000
  0
LINE
  5
4c9
100
AcDbEntity
  8
0
370
    40
100
AcDbLine
 10
21.250000
 20
226.325000
 11
19.525000
 21
226.325000
  0
LINE
  5
4cc
100
AcDbEntity
  8
0
370
    20
100
AcDbLine
 10
20.800000
 20
225.025000
 11
20.800000
 21
222.000000
  0
LINE
  5
4cf
100
AcDbEntity
  8
0
370
    20
100
AcDbLine
 10
19.950000
 20
225.025000
 11
19.950000
 21
222.000000
  0
LINE
  5
4d2
100
AcDbEntity
  8
0
370
    20
100
AcDbLine
 10
29.650000
 20
225.025000
 11
31.800000
 21
228.900000
  0
LINE
  5
4d5
100
AcDbEntity
  8
0
370
    20
100
AcDbLine
 10
31.800000
 20
228.900000
 11
31.350000
 21
226.725000
  0
LINE
  5
4d8
100
AcDbEntity
  8
0
370
    20
100
AcDbLine
 10
31.800000
 20
228.900000
 11
30.050000
 21
227.175000
  0
LINE
  5
4db
100
AcDbEntity
  8
0
370
    20
100
AcDbLine
 10
29.650000
 20
217.700000
 11
31.800000
 21
221.575000
  0
LINE
  5
4de
100
AcDbEntity
  8
0
370
    20
100
AcDbLine
 10
31.800000
 20
221.575000
 11
31.350000
 21
219.425000
  0
LINE
  5
4e1
100
AcDbEntity
  8
0
370
    20
100
AcDbLine
 10
31.800000
 20
221.575000
 11
30.050000
 21
219.850000
  0
MTEXT
  5
4e4
100
AcDbEntity
  8
0
100
AcDbMText
 10
10.575000
 20
234.125000
 40
1.856250
 41
31.185000
 71
     1
 72
     5
  1
\fＭＳ ゴシック|b0|i0|c128|p49;\T1.2588;レギュレータ\T1.0153;ー
 44
1.226497
 73
     1
  7
BIGFONT
  0
MTEXT
  5
4e7
100
AcDbEntity
  8
0
100
AcDbMText
 10
15.850000
 20
219.825000
 40
1.856250
 41
31.185000
 71
     1
 72
     5
  1
\f@ＭＳ ゴシック|b0|i0|c128|p49;\H1.8563;\T1.2588;窒素ガスボン\T2.2984;ベ
 44
1.292701
 73
     1
 11
-0.000000000000000
 21
-1.000000
 31
0.000000
  7
BIGFONT
  0
LINE
  5
4ea
100
AcDbEntity
  8
0
370
    20
100
AcDbLine
 10
24.800000
 20
223.275000
 11
26.400000
 21
223.300000
  0
CIRCLE
  5
4ed
100
AcDbEntity
  8
0
370
    20
100
AcDbCircle
 10
25.550000
 20
227.175000
 40
0.800000
  0
MTEXT
  5
4f0
100
AcDbEntity
  8
0
100
AcDbMText
 10
62.725000
 20
169.000000
 40
1.856250
 41
22.275000
 71
     1
 72
     5
  1
\fＭＳ ゴシック|b0|i0|c128|p49;\T1.4384;測定ロッド
 44
1.597188
 73
     1
  7
BIGFONT
  0
MTEXT
  5
4f3
100
AcDbEntity
  8
0
100
AcDbMText
 10
62.725000
 20
144.375000
 40
1.856250
 41
31.185000
 71
     1
 72
     5
  1
\fＭＳ ゴシック|b0|i0|c128|p49;\T0.8118;トリップバル\T1.4340;ブ
 44
1.597188
 73
     1
  7
BIGFONT
  0
MTEXT
  5
4f6
100
AcDbEntity
  8
0
100
AcDbMText
 10
62.875000
 20
139.300000
 40
1.856250
 41
26.730000
 71
     1
 72
     5
  1
\fＭＳ ゴシック|b0|i0|c128|p49;\T0.8118;エアパッカ\T1.0153;ー
 44
1.597188
 73
     1
  7
BIGFONT
  0
MTEXT
  5
4f9
100
AcDbEntity
  8
0
100
AcDbMText
 10
66.000000
 20
131.175000
 40
1.856250
 41
26.730000
 71
     1
 72
     5
  1
\fＭＳ ゴシック|b0|i0|c128|p49;\T0.8118;ストレーナ\T1.0153;ー
 44
1.597188
 73
     1
  7
BIGFONT
  0
MTEXT
  5
4fc
100
AcDbEntity
  8
0
100
AcDbMText
 10
27.275000
 20
210.400000
 40
1.856250
 41
22.275000
 71
     1
 72
     5
  1
\fＭＳ ゴシック|b0|i0|c128|p49;\T0.8118;エアホー\T1.4340;ス
 44
1.597188
 73
     1
  7
BIGFONT
  0
MTEXT
  5
4ff
100
AcDbEntity
  8
0
100
AcDbMText
 10
20.375000
 20
129.450000
 40
1.856250
 41
26.730000
 71
     1
 72
     5
  1
\fＭＳ ゴシック|b0|i0|c128|p49;\T0.8118;ボーリング\T1.4340;孔
 44
1.597188
 73
     1
  7
BIGFONT
  0
MTEXT
  5
502
100
AcDbEntity
  8
0
100
AcDbMText
 10
62.425000
 20
155.225000
 40
1.856250
 41
40.095000
 71
     1
 72
     5
  1
\fＭＳ ゴシック|b0|i0|c128|p49;\T0.9159;ゴーデビル(重錘弁\T0.9067;)
 44
1.597188
 73
     1
  7
BIGFONT
  0
MTEXT
  5
505
100
AcDbEntity
  8
0
100
AcDbMText
 10
49.275000
 20
231.025000
 40
1.856250
 41
35.640000
 71
     1
 72
     5
  1
\fＭＳ ゴシック|b0|i0|c128|p49;\T0.9159;水位測定ケーブ\T1.4340;ル
 44
1.597188
 73
     1
  7
BIGFONT
  0
MTEXT
  5
508
100
AcDbEntity
  8
0
100
AcDbMText
 10
62.875000
 20
161.975000
 40
1.856250
 41
26.730000
 71
     1
 72
     5
  1
\fＭＳ ゴシック|b0|i0|c128|p49;\T0.9159;水位検出電\T1.4340;極
 44
1.597188
 73
     1
  7
BIGFONT
  0
MTEXT
  5
50b
100
AcDbEntity
  8
0
100
AcDbMText
 10
61.475000
 20
119.900000
 40
1.856250
 41
22.275000
 71
     1
 72
     5
  1
\fＭＳ ゴシック|b0|i0|c128|p49;\T0.9159;試験区間\T1.4340;長
 44
1.597188
 73
     1
  7
BIGFONT
  0
MTEXT
  5
50e
100
AcDbEntity
  8
0
100
AcDbMText
 10
45.375000
 20
94.925000
 40
1.856250
 41
8.910000
 71
     1
 72
     5
  1
\fＭＳ ゴシック|b0|i0|c128|p49;\T0.8118;孔\T1.4340;径
 44
1.597188
 73
     1
  7
BIGFONT
  0
MTEXT
  5
511
100
AcDbEntity
  8
0
100
AcDbMText
 10
35.900000
 20
120.925000
 40
1.856250
 41
13.365000
 71
     1
 72
     5
  1
\f@ＭＳ ゴシック|b0|i0|c128|p49;\T1.4384;透水層
 44
1.597188
 73
     1
 11
-0.000000000000000
 21
-1.000000
 31
0.000000
  7
BIGFONT
  0
MTEXT
  5
514
100
AcDbEntity
  8
0
100
AcDbMText
 10
48.425000
 20
98.125000
 40
2.475000
 41
4.455000
 71
     1
 72
     5
  1
\f@ＭＳ ゴシック|b0|i0|c128|p49;\T1.0200;Ｄ
 44
1.284848
 73
     1
 11
-0.000000000000000
 21
-1.000000
 31
0.000000
  7
BIGFONT
  0
MTEXT
  5
517
100
AcDbEntity
  8
0
100
AcDbMText
 10
63.000000
 20
186.150000
 40
1.856250
 41
22.275000
 71
     1
 72
     5
  1
\fＭＳ ゴシック|b0|i0|c128|p49;\T0.8118;ケーシン\T1.4340;グ
 44
1.597188
 73
     1
  7
BIGFONT
  0
MTEXT
  5
51a
100
AcDbEntity
  8
0
100
AcDbMText
 10
61.525000
 20
123.675000
 40
2.475000
 41
4.455000
 71
     1
 72
     5
  1
\fＭＳ ゴシック|b0|i0|c128|p49;\T1.0200;Ｌ
 44
1.284848
 73
     1
  7
BIGFONT
  0
LINE
  5
51d
100
AcDbEntity
  8
0
370
    20
100
AcDbLine
 10
35.000000
 20
210.400000
 11
41.400000
 21
220.550000
  0
LWPOLYLINE
  5
520
100
AcDbEntity
  8
0
100
AcDbPolyline
 90
     4
 70
     1
 43
0.200000
 10
41.400000
 20
220.550000
 10
40.875000
 20
218.625000
 10
40.500000
 20
219.150000
 10
39.850000
 20
219.275000
  0
LINE
  5
52b
100
AcDbEntity
  8
0
370
    20
100
AcDbLine
 10
19.075000
 20
231.500000
 11
24.375000
 21
224.775000
  0
LWPOLYLINE
  5
52e
100
AcDbEntity
  8
0
100
AcDbPolyline
 90
     4
 70
     1
 43
0.200000
 10
24.375000
 20
224.775000
 10
22.700000
 20
225.900000
 10
23.325000
 20
226.100000
 10
23.650000
 20
226.650000
  0
LINE
  5
539
100
AcDbEntity
  8
0
370
    20
100
AcDbLine
 10
62.200000
 20
184.925000
 11
54.075000
 21
183.850000
  0
LWPOLYLINE
  5
53c
100
AcDbEntity
  8
0
100
AcDbPolyline
 90
     4
 70
     1
 43
0.200000
 10
54.075000
 20
183.850000
 10
55.875000
 20
184.700000
 10
55.725000
 20
184.075000
 10
56.025000
 20
183.525000
  0
LINE
  5
547
100
AcDbEntity
  8
0
370
    20
100
AcDbLine
 10
61.875000
 20
167.600000
 11
50.625000
 21
165.725000
  0
LWPOLYLINE
  5
54a
100
AcDbEntity
  8
0
100
AcDbPolyline
 90
     4
 70
     1
 43
0.200000
 10
50.625000
 20
165.725000
 10
52.400000
 20
166.650000
 10
52.275000
 20
166.025000
 10
52.600000
 20
165.450000
  0
LINE
  5
555
100
AcDbEntity
  8
0
370
    20
100
AcDbLine
 10
62.025000
 20
160.250000
 11
48.125000
 21
160.725000
  0
LWPOLYLINE
  5
558
100
AcDbEntity
  8
0
100
AcDbPolyline
 90
     4
 70
     1
 43
0.200000
 10
48.125000
 20
160.725000
 10
50.050000
 20
161.275000
 10
49.775000
 20
160.675000
 10
50.000000
 20
160.075000
  0
LINE
  5
563
100
AcDbEntity
  8
0
370
    20
100
AcDbLine
 10
61.875000
 20
153.850000
 11
48.450000
 21
152.900000
  0
LWPOLYLINE
  5
566
100
AcDbEntity
  8
0
100
AcDbPolyline
 90
     4
 70
     1
 43
0.200000
 10
48.450000
 20
152.900000
 10
50.300000
 20
153.650000
 10
50.100000
 20
153.025000
 10
50.375000
 20
152.450000
  0
LINE
  5
571
100
AcDbEntity
  8
0
370
    20
100
AcDbLine
 10
62.200000
 20
143.275000
 11
48.750000
 21
145.775000
  0
LWPOLYLINE
  5
574
100
AcDbEntity
  8
0
100
AcDbPolyline
 90
     4
 70
     1
 43
0.200000
 10
48.750000
 20
145.775000
 10
50.725000
 20
146.025000
 10
50.375000
 20
145.475000
 10
50.500000
 20
144.850000
  0
LINE
  5
57f
100
AcDbEntity
  8
0
370
    20
100
AcDbLine
 10
62.025000
 20
138.050000
 11
53.125000
 21
138.525000
  0
LWPOLYLINE
  5
582
100
AcDbEntity
  8
0
100
AcDbPolyline
 90
     4
 70
     1
 43
0.200000
 10
53.125000
 20
138.525000
 10
55.050000
 20
139.025000
 10
54.775000
 20
138.450000
 10
54.975000
 20
137.825000
  0
LINE
  5
58d
100
AcDbEntity
  8
0
370
    20
100
AcDbLine
 10
64.700000
 20
129.925000
 11
49.375000
 21
127.900000
  0
LWPOLYLINE
  5
590
100
AcDbEntity
  8
0
100
AcDbPolyline
 90
     4
 70
     1
 43
0.200000
 10
49.375000
 20
127.900000
 10
51.175000
 20
128.750000
 10
51.025000
 20
128.125000
 10
51.325000
 20
127.575000
  0
LINE
  5
59b
100
AcDbEntity
  8
0
370
    20
100
AcDbLine
 10
62.500000
 20
124.925000
 11
62.500000
 21
135.100000
  0
LWPOLYLINE
  5
59e
100
AcDbEntity
  8
0
100
AcDbPolyline
 90
     3
 70
     0
 43
0.200000
 10
63.100000
 20
133.200000
 10
62.500000
 20
135.100000
 10
61.875000
 20
133.200000
  0
LINE
  5
5a7
100
AcDbEntity
  8
0
370
    20
100
AcDbLine
 10
62.500000
 20
116.025000
 11
62.500000
 21
106.350000
  0
LWPOLYLINE
  5
5aa
100
AcDbEntity
  8
0
100
AcDbPolyline
 90
     3
 70
     0
 43
0.200000
 10
61.875000
 20
108.275000
 10
62.500000
 20
106.350000
 10
63.100000
 20
108.275000
  0
LINE
  5
5b3
100
AcDbEntity
  8
0
370
    20
100
AcDbLine
 10
41.575000
 20
98.850000
 11
53.275000
 21
98.850000
  0
LWPOLYLINE
  5
5b6
100
AcDbEntity
  8
0
100
AcDbPolyline
 90
     3
 70
     0
 43
0.200000
 10
51.350000
 20
98.250000
 10
53.275000
 20
98.850000
 10
51.350000
 20
99.475000
  0
LWPOLYLINE
  5
5bf
100
AcDbEntity
  8
0
100
AcDbPolyline
 90
     3
 70
     0
 43
0.200000
 10
43.475000
 20
99.475000
 10
41.575000
 20
98.850000
 10
43.475000
 20
98.250000
  0
LINE
  5
5c8
100
AcDbEntity
  8
0
370
    20
100
AcDbLine
 10
34.700000
 20
128.225000
 11
41.575000
 21
123.850000
  0
LWPOLYLINE
  5
5cb
100
AcDbEntity
  8
0
100
AcDbPolyline
 90
     4
 70
     1
 43
0.200000
 10
41.575000
 20
123.850000
 10
39.625000
 20
124.375000
 10
40.150000
 20
124.750000
 10
40.275000
 20
125.400000
  0
MTEXT
  5
5d6
100
AcDbEntity
  8
0
100
AcDbMText
 10
16.675000
 20
187.275000
 40
1.856250
 41
31.185000
 71
     1
 72
     5
  1
\fＭＳ ゴシック|b0|i0|c128|p49;\T0.9159;測定ロッド内\T1.4340;径
 44
1.597188
 73
     1
  7
BIGFONT
  0
MTEXT
  5
5d9
100
AcDbEntity
  8
0
100
AcDbMText
 10
30.175000
 20
190.550000
 40
2.475000
 41
4.455000
 71
     1
 72
     5
  1
\fＭＳ ゴシック|b0|i0|c128|p49;\T1.0200;ｄ
 44
1.284848
 73
     1
  7
BIGFONT
  0
LINE
  5
5dc
100
AcDbEntity
  8
0
370
    20
100
AcDbLine
 10
45.200000
 20
179.300000
 11
50.050000
 21
179.300000
  0
LWPOLYLINE
  5
5df
100
AcDbEntity
  8
0
100
AcDbPolyline
 90
     3
 70
     0
 43
0.200000
 10
49.075000
 20
179.000000
 10
50.050000
 20
179.300000
 10
49.075000
 20
179.625000
  0
LWPOLYLINE
  5
5e8
100
AcDbEntity
  8
0
100
AcDbPolyline
 90
     3
 70
     0
 43
0.200000
 10
46.150000
 20
179.575000
 10
45.200000
 20
179.300000
 10
46.150000
 20
179.050000
  0
ELLIPSE
  5
5f1
100
AcDbEntity
  8
0
370
    20
100
AcDbEllipse
 10
33.450000
 20
179.450000
 30
0.000000
 11
13.125000
 21
-0.00000000000000
 31
0.000000
210
0.000000
220
0.000000
230
1.000000
 40
0.739048
 41
0.000000
 42
1.567728
  0
LWPOLYLINE
  5
5f4
100
AcDbEntity
  8
0
100
AcDbPolyline
 90
     4
 70
     1
 43
0.200000
 10
46.575000
 20
179.450000
 10
46.050000
 20
181.400000
 10
46.575000
 20
181.175000
 10
47.075000
 20
181.400000
  0
ELLIPSE
  5
5ff
100
AcDbEntity
  8
0
370
    20
100
AcDbEllipse
 10
42.625000
 20
119.850000
 30
0.000000
 11
0.00000000000000
 21
10.100000
 31
0.000000
210
0.000000
220
0.000000
230
1.000000
 40
0.415842
 41
3.141593
 42
4.709321
  0
LWPOLYLINE
  5
602
100
AcDbEntity
  8
0
100
AcDbPolyline
 90
     3
 70
     0
 43
0.200000
 10
46.975000
 20
118.875000
 10
46.825000
 20
119.850000
 10
46.650000
 20
118.875000
  0
ELLIPSE
  5
60b
100
AcDbEntity
  8
0
370
    20
100
AcDbEllipse
 10
38.700000
 20
127.075000
 30
0.000000
 11
8.100000
 21
-0.00000000000000
 31
0.000000
210
0.000000
220
0.000000
230
1.000000
 40
0.938272
 41
5.169515
 42
5.654253
  0
LWPOLYLINE
  5
60e
100
AcDbEntity
  8
0
100
AcDbPolyline
 90
     3
 70
     0
 43
0.200000
 10
44.775000
 20
121.725000
 10
45.250000
 20
122.600000
 10
44.500000
 20
121.950000
  0
ELLIPSE
  5
617
100
AcDbEntity
  8
0
370
    20
100
AcDbEllipse
 10
42.200000
 20
132.000000
 30
0.000000
 11
5.925000
 21
-0.00000000000000
 31
0.000000
210
0.000000
220
0.000000
230
1.000000
 40
0.438819
 41
4.709321
 42
5.237010
  0
LWPOLYLINE
  5
61a
100
AcDbEntity
  8
0
100
AcDbPolyline
 90
     3
 70
     0
 43
0.200000
 10
44.250000
 20
129.350000
 10
45.175000
 20
129.750000
 10
44.175000
 20
129.700000
  0
ELLIPSE
  5
623
100
AcDbEntity
  8
0
370
    20
100
AcDbEllipse
 10
42.150000
 20
131.425000
 30
0.000000
 11
6.025000
 21
-0.00000000000000
 31
0.000000
210
0.000000
220
0.000000
230
1.000000
 40
0.912863
 41
4.709321
 42
5.243146
  0
LWPOLYLINE
  5
626
100
AcDbEntity
  8
0
100
AcDbPolyline
 90
     3
 70
     0
 43
0.200000
 10
44.400000
 20
126.075000
 10
45.200000
 20
126.675000
 10
44.225000
 20
126.375000
  0
ELLIPSE
  5
62f
100
AcDbEntity
  8
0
370
    20
100
AcDbEllipse
 10
52.525000
 20
119.850000
 30
0.000000
 11
0.00000000000000
 21
10.100000
 31
0.000000
210
0.000000
220
0.000000
230
1.000000
 40
0.415842
 41
1.567728
 42
3.141593
  0
LWPOLYLINE
  5
632
100
AcDbEntity
  8
0
100
AcDbPolyline
 90
     3
 70
     0
 43
0.200000
 10
48.175000
 20
118.875000
 10
48.325000
 20
119.850000
 10
48.500000
 20
118.875000
  0
ELLIPSE
  5
63b
100
AcDbEntity
  8
0
370
    20
100
AcDbEllipse
 10
56.450000
 20
127.075000
 30
0.000000
 11
8.100000
 21
-0.00000000000000
 31
0.000000
210
0.000000
220
0.000000
230
1.000000
 40
0.938272
 41
3.770525
 42
4.255263
  0
LWPOLYLINE
  5
63e
100
AcDbEntity
  8
0
100
AcDbPolyline
 90
     3
 70
     0
 43
0.200000
 10
50.375000
 20
121.725000
 10
49.900000
 20
122.600000
 10
50.650000
 20
121.950000
  0
ELLIPSE
  5
647
100
AcDbEntity
  8
0
370
    20
100
AcDbEllipse
 10
52.950000
 20
132.000000
 30
0.000000
 11
5.925000
 21
-0.00000000000000
 31
0.000000
210
0.000000
220
0.000000
230
1.000000
 40
0.438819
 41
4.184700
 42
4.709321
  0
LWPOLYLINE
  5
64a
100
AcDbEntity
  8
0
100
AcDbPolyline
 90
     3
 70
     0
 43
0.200000
 10
50.900000
 20
129.350000
 10
49.975000
 20
129.750000
 10
50.975000
 20
129.700000
  0
ELLIPSE
  5
653
100
AcDbEntity
  8
0
370
    20
100
AcDbEllipse
 10
53.000000
 20
131.425000
 30
0.000000
 11
6.025000
 21
-0.00000000000000
 31
0.000000
210
0.000000
220
0.000000
230
1.000000
 40
0.912863
 41
4.181632
 42
4.709321
  0
LWPOLYLINE
  5
656
100
AcDbEntity
  8
0
100
AcDbPolyline
 90
     3
 70
     0
 43
0.200000
 10
50.750000
 20
126.075000
 10
49.950000
 20
126.675000
 10
50.925000
 20
126.375000
  0
LINE
  5
65f
100
AcDbEntity
  8
0
370
    20
100
AcDbLine
 10
46.250000
 20
161.975000
 11
46.250000
 21
171.550000
  0
LWPOLYLINE
  5
662
100
AcDbEntity
  8
0
100
AcDbPolyline
 90
     3
 70
     0
 43
0.200000
 10
46.400000
 20
170.575000
 10
46.250000
 20
171.550000
 10
46.075000
 20
170.575000
  0
LINE
  5
66b
100
AcDbEntity
  8
0
370
    20
100
AcDbLine
 10
48.950000
 20
162.000000
 11
48.950000
 21
171.350000
  0
LWPOLYLINE
  5
66e
100
AcDbEntity
  8
0
100
AcDbPolyline
 90
     3
 70
     0
 43
0.200000
 10
49.100000
 20
170.375000
 10
48.950000
 20
171.350000
 10
48.775000
 20
170.375000
  0
MTEXT
  5
677
100
AcDbEntity
  8
0
100
AcDbMText
 10
20.850000
 20
165.075000
 40
1.856250
 41
17.820000
 71
     1
 72
     5
  1
\fＭＳ ゴシック|b0|i0|c128|p49;\T1.4384;回復水位
 44
1.597188
 73
     1
  7
BIGFONT
  0
LINE
  5
67a
100
AcDbEntity
  8
0
370
    20
100
AcDbLine
 10
32.975000
 20
163.600000
 11
46.025000
 21
165.725000
  0
LWPOLYLINE
  5
67d
100
AcDbEntity
  8
0
100
AcDbPolyline
 90
     4
 70
     1
 43
0.200000
 10
46.025000
 20
165.725000
 10
44.225000
 20
164.850000
 10
44.350000
 20
165.475000
 10
44.025000
 20
166.025000
  0
ENDSEC
  0
SECTION
  2
OBJECTS
  0
DICTIONARY
  5
690
100
AcDbDictionary
281
     1
  3
ACAD_COLOR
350
691
  3
ACAD_GROUP
350
692
  3
ACAD_LAYOUT
350
693
  3
ACAD_MATERIAL
350
694
  3
ACAD_MLINESTYLE
350
695
  3
CONTENTDICTIONARY
350
69b
  0
DICTIONARY
  5
691
102
{ACAD_REACTORS
330
690
102
}
330
690
100
AcDbDictionary
281
     1
  0
DICTIONARY
  5
692
102
{ACAD_REACTORS
330
690
102
}
330
690
100
AcDbDictionary
281
     1
  3
Layout1
350
69c
  3
Layout2
350
69d
  3
Model
350
6e0
  0
DICTIONARY
  5
693
102
{ACAD_REACTORS
330
690
102
}
330
690
100
AcDbDictionary
281
     1
  0
DICTIONARY
  5
694
102
{ACAD_REACTORS
330
690
102
}
330
690
100
AcDbDictionary
281
     1
  0
DICTIONARY
  5
695
102
{ACAD_REACTORS
330
690
102
}
330
690
100
AcDbDictionary
281
     1
  3
Standard
350
69e
  0
DICTIONARY
  5
696
102
{ACAD_REACTORS
330
690
102
}
330
690
100
AcDbDictionary
281
     1
  0
ACDBDICTIONARYWDFLT
  5
697
102
{ACAD_REACTORS
330
690
102
}
330
690
100
AcDbDictionary
281
     1
  3
Normal
350
6e1
100
AcDbDictionaryWithDefault
340
6e1
  0
DICTIONARY
  5
698
102
{ACAD_REACTORS
330
690
102
}
330
690
100
AcDbDictionary
281
     1
  3
Standard
350
6e2
  0
DICTIONARY
  5
699
102
{ACAD_REACTORS
330
690
102
}
330
690
100
AcDbDictionary
281
     1
  3
CEPSNTYPE
350
6a0
  3
FINGERPRINTGUID
350
6a1
  3
HYPERLINKBASE
350
6a2
  3
INSUNITS
350
6a3
  3
LAYOUTDICT
350
6a4
  3
LWETCUNION
350
6a5
  3
PLOTSETDICT
350
6a6
  3
PLOTSTYLNAMDICT
350
6a7
  3
PSVPSCALE
350
6a8
  3
PUCSBASE
350
6a9
  3
PUCSORGBACK
350
6aa
  3
PUCSORGBOTTOM
350
6ab
  3
PUCSORGFRONT
350
6ac
  3
PUCSORGLEFT
350
6ad
  3
PUCSORGRIGHT
350
6ae
  3
PUCSORGTOP
350
6af
  3
PUCSORTHOREF
350
6b0
  3
PUCSORTHOVIEW
350
6b1
  3
STYLESHEET
350
6b2
  3
TSTACKALIGN
350
6b3
  3
TSTACKSIZE
350
6b4
  3
UCSBASE
350
6b5
  3
UCSORGBACK
350
6b6
  3
UCSORGBOTTOM
350
6b7
  3
UCSORGFRONT
350
6b8
  3
UCSORGLEFT
350
6b9
  3
UCSORGRIGHT
350
6ba
  3
UCSORGTOP
350
6bb
  3
UCSORTHOREF
350
6bc
  3
UCSORTHOVIEW
350
6bd
  3
VERSIONGUID
350
6be
  0
DICTIONARY
  5
69a
102
{ACAD_REACTORS
330
690
102
}
330
690
100
AcDbDictionary
281
     1
  3
CTABLESTYLE
350
6bf
  3
DIMASSOC
350
6c0
  3
HIDETEXT
350
6c1
  3
PROJECTNAME
350
6c2
  0
LAYOUT
  5
69b
102
{ACAD_XDICTIONARY
360
9a6
102
}
102
{ACAD_REACTORS
330
691
102
}
330
691
100
AcDbPlotSettings
  1

  2

  4

  6

 40
0.000000
 41
0.000000
 42
0.000000
 43
0.000000
 44
0.000000
 45
0.000000
 46
0.000000
 47
0.000000
 48
0.000000
 49
0.000000
140
0.000000
141
0.000000
142
1.000000
143
1.000000
 70
   688
 72
     0
 73
     0
 74
     5
  7

 75
    16
147
1.000000
148
0.000000
149
0.000000
100
AcDbLayout
  1
Layout1
 70
     1
 71
     1
 10
0.000000
 20
0.000000
 11
171.000000
 21
244.000000
 12
0.000000
 22
0.000000
 32
0.000000
 14
100000000000000000000.000000
 24
100000000000000000000.000000
 34
100000000000000000000.000000
 15
-100000000000000000000.000000
 25
-100000000000000000000.000000
 35
-100000000000000000000.000000
146
0.000000
 13
0.000000
 23
0.000000
 33
0.000000
 16
1.000000
 26
0.000000
 36
0.000000
 17
0.000000
 27
1.000000
 37
0.000000
 76
     0
330
695
  0
LAYOUT
  5
69c
102
{ACAD_XDICTIONARY
360
9a8
102
}
102
{ACAD_REACTORS
330
691
102
}
330
691
100
AcDbPlotSettings
  1

  2

  4

  6

 40
0.000000
 41
0.000000
 42
0.000000
 43
0.000000
 44
0.000000
 45
0.000000
 46
0.000000
 47
0.000000
 48
0.000000
 49
0.000000
140
0.000000
141
0.000000
142
1.000000
143
1.000000
 70
   688
 72
     0
 73
     0
 74
     5
  7

 75
    16
147
1.000000
148
0.000000
149
0.000000
100
AcDbLayout
  1
Layout2
 70
     1
 71
     2
 10
0.000000
 20
0.000000
 11
171.000000
 21
244.000000
 12
0.000000
 22
0.000000
 32
0.000000
 14
0.000000
 24
0.000000
 34
0.000000
 15
0.000000
 25
0.000000
 35
0.000000
146
0.000000
 13
0.000000
 23
0.000000
 33
0.000000
 16
1.000000
 26
0.000000
 36
0.000000
 17
0.000000
 27
1.000000
 37
0.000000
 76
     0
330
69c
  0
LAYOUT
  5
69d
102
{ACAD_XDICTIONARY
360
9aa
102
}
102
{ACAD_REACTORS
330
691
102
}
330
691
100
AcDbPlotSettings
  1

  2

  4

  6

 40
0.000000
 41
0.000000
 42
0.000000
 43
0.000000
 44
0.000000
 45
0.000000
 46
0.000000
 47
0.000000
 48
0.000000
 49
0.000000
140
0.000000
141
0.000000
142
1.000000
143
1.000000
 70
  1712
 72
     0
 73
     0
 74
     0
  7

 75
    16
147
1.000000
148
0.000000
149
0.000000
100
AcDbLayout
  1
Model
 70
     1
 71
     0
 10
0.000000
 20
0.000000
 11
171.000000
 21
244.000000
 12
0.000000
 22
0.000000
 32
0.000000
 14
0.000000
 24
0.000000
 34
0.000000
 15
0.000000
 25
0.000000
 35
0.000000
146
0.000000
 13
0.000000
 23
0.000000
 33
0.000000
 16
1.000000
 26
0.000000
 36
0.000000
 17
0.000000
 27
1.000000
 37
0.000000
 76
     0
330
69d
  0
MLINESTYLE
  5
69e
102
{ACAD_REACTORS
330
69d
102
}
330
69d
100
AcDbMlineStyle
  2
STANDARD
 70
     0
  3
 
 62
   256
 51
90.000000
 52
90.000000
 71
     2
 49
0.500000
 62
   256
  6
BYLAYER
 49
-0.500000
 62
   256
  6
BYLAYER
  0
ACDBPLACEHOLDER
  5
69f
102
{ACAD_REACTORS
330
69e
102
}
330
69e
  0
DICTIONARY
  5
9a6
100
AcDbDictionary
280
     1
281
     1
  3
ACAD_XREC_ROUNDTRIP
360
9a7
  0
DICTIONARY
  5
9a8
100
AcDbDictionary
280
     1
281
     1
  3
ACAD_XREC_ROUNDTRIP
360
9a9
  0
DICTIONARY
  5
9aa
100
AcDbDictionary
280
     1
281
     1
  3
ACAD_XREC_ROUNDTRIP
360
9ab
  0
XRECORD
  5
9a7
102
{ACAD_REACTORS
330
9a6
102
}
330
9a6
100
AcDbXrecord
280
     1
102
SHADEPLOT
 70
     0
102
SHADEPLOTRESLEVEL
 70
     2
102
SHADEPLOTCUSTOMDPI
 70
   300
  0
XRECORD
  5
9a9
102
{ACAD_REACTORS
330
9a8
102
}
330
9a8
100
AcDbXrecord
280
     1
102
SHADEPLOT
 70
     0
102
SHADEPLOTRESLEVEL
 70
     2
102
SHADEPLOTCUSTOMDPI
 70
   300
  0
XRECORD
  5
9ab
102
{ACAD_REACTORS
330
9aa
102
}
330
9aa
100
AcDbXrecord
280
     1
102
SHADEPLOT
 70
     0
102
SHADEPLOTRESLEVEL
 70
     2
102
SHADEPLOTCUSTOMDPI
 70
   300
  0
ENDSEC
  0
EOF
