  0
SECTION
  2
HEADER
  9
$ACADVER
  1
AC1018
  9
$ACADMAINTVER
 70
     0
  9
$DWGCODEPAGE
  3
ANSI_932
  9
$INSBASE
 10
0.000000
 20
0.000000
 30
0.000000
  9
$EXTMIN
 10
0.000000
 20
0.000000
 30
0.000000
  9
$EXTMAX
 10
197.100000
 20
283.100000
 30
0.000000
  9
$LIMMIN
 10
0.000000
 20
0.000000
  9
$LIMMAX
 10
197.100000
 20
283.100000
  9
$ORTHOMODE
 70
     0
  9
$REGENMODE
 70
     1
  9
$FILLMODE
 70
     1
  9
$QTEXTMODE
 70
     0
  9
$MIRRTEXT
 70
     1
  9
$LTSCALE
 40
1.000000
  9
$ATTMODE
 70
     1
  9
$TEXTSIZE
 40
2.500000
  9
$TRACEWID
 40
1.000000
  9
$TEXTSTYLE
  7
BIGFONT
  9
$CLAYER
  8
0
  9
$CELTYPE
  6
BYLAYER
  9
$CECOLOR
 62
   256
  9
$CELTSCALE
 40
1.000000
  9
$DISPSILH
 70
     0
  9
$DIMSCALE
 40
1.000000
  9
$DIMASZ
 40
2.500000
  9
$DIMEXO
 40
0.625000
  9
$DIMDLI
 40
3.750000
  9
$DIMRND
 40
0.000000
  9
$DIMDLE
 40
0.000000
  9
$DIMEXE
 40
1.250000
  9
$DIMTP
 40
0.000000
  9
$DIMTM
 40
0.000000
  9
$DIMTXT
 40
2.500000
  9
$DIMCEN
 40
2.500000
  9
$DIMTSZ
 40
0.000000
  9
$DIMTOL
 70
     0
  9
$DIMLIM
 70
     0
  9
$DIMTIH
 70
     0
  9
$DIMTOH
 70
     0
  9
$DIMSE1
 70
     0
  9
$DIMSE2
 70
     0
  9
$DIMTAD
 70
     1
  9
$DIMZIN
 70
     8
  9
$DIMBLK
  1

  9
$DIMASO
 70
     1
  9
$DIMSHO
 70
     1
  9
$DIMPOST
  1

  9
$DIMAPOST
  1

  9
$DIMALT
 70
     0
  9
$DIMALTD
 70
     4
  9
$DIMALTF
 40
0.039400
  9
$DIMLFAC
 40
1.000000
  9
$DIMTOFL
 70
     1
  9
$DIMTVP
 40
0.000000
  9
$DIMTIX
 70
     0
  9
$DIMSOXD
 70
     0
  9
$DIMSAH
 70
     0
  9
$DIMBLK1
  1

  9
$DIMBLK2
  1

  9
$DIMSTYLE
  2
STANDARD
  9
$DIMCLRD
 70
     0
  9
$DIMCLRE
 70
     0
  9
$DIMCLRT
 70
     0
  9
$DIMTFAC
 40
1.000000
  9
$DIMGAP
 40
0.625000
  9
$DIMJUST
 70
     0
  9
$DIMSD1
 70
     0
  9
$DIMSD2
 70
     0
  9
$DIMTOLJ
 70
     1
  9
$DIMTZIN
 70
     0
  9
$DIMALTZ
 70
     0
  9
$DIMALTTZ
 70
     0
  9
$DIMUPT
 70
     0
  9
$DIMDEC
 70
     4
  9
$DIMTDEC
 70
     4
  9
$DIMALTU
 70
     8
  9
$DIMALTTD
 70
     4
  9
$DIMTXSTY
  7
STANDARD
  9
$DIMAUNIT
 70
     0
  9
$DIMADEC
 70
     0
  9
$DIMALTRND
 40
0.000000
  9
$DIMAZIN
 70
     0
  9
$DIMDSEP
 70
    46
  9
$DIMATFIT
 70
     3
  9
$DIMFRAC
 70
     0
  9
$DIMLDRBLK
  1

  9
$DIMLUNIT
 70
     2
  9
$DIMLWD
 70
-2
  9
$DIMLWE
 70
-2
  9
$DIMTMOVE
 70
     0
  9
$LUNITS
 70
     2
  9
$LUPREC
 70
     4
  9
$AXISMODE
 70
     0
  9
$SKETCHINC
 40
1.000000
  9
$FILLETRAD
 40
10.000000
  9
$AUNITS
 70
     0
  9
$AUPREC
 70
     0
  9
$MENU
  1
acad
  9
$ELEVATION
 40
0.000000
  9
$PELEVATION
 40
0.000000
  9
$THICKNESS
 40
0.000000
  9
$LIMCHECK
 70
     0
  9
$BLIPMODE
 70
     0
  9
$CHAMFERA
 40
10.000000
  9
$CHAMFERB
 40
10.000000
  9
$CHAMFERC
 40
20.000000
  9
$CHAMFERD
 40
0.000000
  9
$SKPOLY
 70
     0
  9
$TDCREATE
 40
2447851.677998
  9
$TDUCREATE
 40
2447851.677998
  9
$TDUPDATE
 40
2447851.677998
  9
$TDUUPDATE
 40
2447851.677998
  9
$TDINDWG
 40
0.000000
  9
$TDUSRTIMER
 40
0.000000
  9
$USRTIMER
 70
     1
  9
$ANGBASE
 50
0.000000
  9
$ANGDIR
 70
     0
  9
$PDMODE
 70
     0
  9
$PDSIZE
 40
0.000000
  9
$PLINEWID
 40
0.000000
  9
$SPLFRAME
 70
     0
  9
$SPLINETYPE
 70
     6
  9
$SPLINESEGS
 70
     8
  9
$HANDSEED
  5
FFFFFFF
  9
$SURFTAB1
 70
     6
  9
$SURFTAB2
 70
     6
  9
$SURFTYPE
 70
     6
  9
$SURFU
 70
     6
  9
$SURFV
 70
     6
  9
$UCSBASE
  2

  9
$UCSNAME
  2

  9
$UCSORG
 10
0.000000
 20
0.000000
 30
0.000000
  9
$UCSXDIR
 10
1.000000
 20
0.000000
 30
0.000000
  9
$UCSYDIR
 10
0.000000
 20
1.000000
 30
0.000000
  9
$UCSORTHOREF
  2

  9
$UCSORTHOVIEW
 70
     0
  9
$UCSORGTOP
 10
0.000000
 20
0.000000
 30
0.000000
  9
$UCSORGBOTTOM
 10
0.000000
 20
0.000000
 30
0.000000
  9
$UCSORGLEFT
 10
0.000000
 20
0.000000
 30
0.000000
  9
$UCSORGRIGHT
 10
0.000000
 20
0.000000
 30
0.000000
  9
$UCSORGFRONT
 10
0.000000
 20
0.000000
 30
0.000000
  9
$UCSORGBACK
 10
0.000000
 20
0.000000
 30
0.000000
  9
$PUCSBASE
  2

  9
$PUCSNAME
  2

  9
$PUCSORG
 10
0.000000
 20
0.000000
 30
0.000000
  9
$PUCSXDIR
 10
1.000000
 20
0.000000
 30
0.000000
  9
$PUCSYDIR
 10
0.000000
 20
1.000000
 30
0.000000
  9
$PUCSORTHOREF
  2

  9
$PUCSORTHOVIEW
 70
     0
  9
$PUCSORGTOP
 10
0.000000
 20
0.000000
 30
0.000000
  9
$PUCSORGBOTTOM
 10
0.000000
 20
0.000000
 30
0.000000
  9
$PUCSORGLEFT
 10
0.000000
 20
0.000000
 30
0.000000
  9
$PUCSORGRIGHT
 10
0.000000
 20
0.000000
 30
0.000000
  9
$PUCSORGFRONT
 10
0.000000
 20
0.000000
 30
0.000000
  9
$PUCSORGBACK
 10
0.000000
 20
0.000000
 30
0.000000
  9
$USERI1
 70
     0
  9
$USERI2
 70
     0
  9
$USERI3
 70
     0
  9
$USERI4
 70
     0
  9
$USERI5
 70
     0
  9
$USERR1
 40
0.000000
  9
$USERR2
 40
0.000000
  9
$USERR3
 40
0.000000
  9
$USERR4
 40
0.000000
  9
$USERR5
 40
0.000000
  9
$WORLDVIEW
 70
     1
  9
$SHADEDGE
 70
     3
  9
$SHADEDIF
 70
    70
  9
$TILEMODE
 70
     1
  9
$MAXACTVP
 70
    48
  9
$PINSBASE
 10
0.000000
 20
0.000000
 30
0.000000
  9
$PLIMCHECK
 70
     0
  9
$PEXTMIN
 10
100000000000000000000.000000
 20
100000000000000000000.000000
 30
100000000000000000000.000000
  9
$PEXTMAX
 10
-100000000000000000000.000000
 20
-100000000000000000000.000000
 30
-100000000000000000000.000000
  9
$PLIMMIN
 10
0.000000
 20
0.000000
  9
$PLIMMAX
 10
197.100000
 20
283.100000
  9
$UNITMODE
 70
     0
  9
$VISRETAIN
 70
     1
  9
$PLINEGEN
 70
     0
  9
$PSLTSCALE
 70
     1
  9
$TREEDEPTH
 70
  3020
  9
$CMLSTYLE
  2
STANDARD
  9
$CMLJUST
 70
     0
  9
$CMLSCALE
 40
20.000000
  9
$PROXYGRAPHICS
 70
     1
  9
$MEASUREMENT
 70
     1
  9
$CELWEIGHT
370
-1
  9
$ENDCAPS
280
     0
  9
$JOINSTYLE
280
     0
  9
$LWDISPLAY
290
     1
  9
$INSUNITS
 70
     0
  9
$HYPERLINKBASE
  1

  9
$STYLESHEET
  1

  9
$XEDIT
290
     1
  9
$CEPSNTYPE
380
     0
  9
$PSTYLEMODE
290
     1
  9
$FINGERPRINTGUID
  2
{01801163-5BC0-459E-B9C7-2188C09ED432}
  9
$VERSIONGUID
  2
{7F326DDD-95DF-42AD-9861-A0CD9F0961F2}
  9
$EXTNAMES
290
     1
  9
$PSVPSCALE
 40
0.0
  9
$OLESTARTUP
290
     0
  9
$SORTENTS
280
   127
  9
$INDEXCTL
280
     0
  9
$HIDETEXT
280
     1
  9
$XCLIPFRAME
290
     0
  9
$HALOGAP
280
     0
  9
$OBSCOLOR
 70
   257
  9
$OBSLTYPE
280
     0
  9
$INTERSECTIONDISPLAY
280
     0
  9
$INTERSECTIONCOLOR
 70
   257
  9
$DIMASSOC
280
     2
  9
$PROJECTNAME
  1

  0
ENDSEC
  0
SECTION
  2
TABLES
  0
TABLE
  2
VPORT
  5
a2
100
AcDbSymbolTable
 70
     2
  0
VPORT
  5
a5
100
AcDbSymbolTableRecord
100
AcDbViewportTableRecord
  2
*ACTIVE
 70
     0
 10
0.000000
 20
0.000000
 11
1.000000
 21
1.000000
 12
300.000000
 22
200.000000
 13
0.000000
 23
0.000000
 14
10.000000
 24
10.000000
 15
10.000000
 25
10.000000
 16
0.000000
 26
0.000000
 36
1.000000
 17
0.000000
 27
0.000000
 37
0.000000
 40
300.000000
 41
1.600432
 42
50.000000
 43
0.000000
 44
0.000000
 50
0.000000
 51
0.000000
 71
     0
 72
   100
 73
     1
 74
     1
 75
     0
 76
     0
 77
     0
 78
     0
  0
ENDTAB
  0
TABLE
  2
LTYPE
  5
a8
100
AcDbSymbolTable
 70
    11
  0
LTYPE
  5
ab
100
AcDbSymbolTableRecord
100
AcDbLinetypeTableRecord
  2
BYBLOCK
 70
    64
  3
BYBLOCK
 72
    65
 73
     0
 40
0.000000
  0
LTYPE
  5
ae
100
AcDbSymbolTableRecord
100
AcDbLinetypeTableRecord
  2
BYLAYER
 70
    64
  3
BYLAYER
 72
    65
 73
     0
 40
0.000000
  0
LTYPE
  5
b1
100
AcDbSymbolTableRecord
100
AcDbLinetypeTableRecord
  2
CONTINUOUS
 70
    64
  3
実線
 72
    65
 73
     0
 40
0.000000
  0
LTYPE
  5
b4
100
AcDbSymbolTableRecord
100
AcDbLinetypeTableRecord
  2
DASHED
 70
    64
  3
__ __ __ __ __ __ __ __ __ __ __ __ __ __ __
 72
    65
 73
     2
 40
0.750000
 49
0.500000
 74
     0
 49
-0.250000
 74
     0
  0
LTYPE
  5
b7
100
AcDbSymbolTableRecord
100
AcDbLinetypeTableRecord
  2
HIDDEN
 70
    64
  3
_ _ _ _ _ _ _ _ _ _ _ _ _ _ _ _ _ _ _ _ _ _ _
 72
    65
 73
     2
 40
0.375000
 49
0.250000
 74
     0
 49
-0.125000
 74
     0
  0
LTYPE
  5
ba
100
AcDbSymbolTableRecord
100
AcDbLinetypeTableRecord
  2
CENTER
 70
    64
  3
____ _ ____ _ ____ _ ____ _ ____ _ ____ _ ____
 72
    65
 73
     4
 40
2.000000
 49
1.250000
 74
     0
 49
-0.250000
 74
     0
 49
0.250000
 74
     0
 49
-0.250000
 74
     0
  0
LTYPE
  5
bd
100
AcDbSymbolTableRecord
100
AcDbLinetypeTableRecord
  2
PHANTOM
 70
    64
  3
_____ _ _ _____ _ _ _____ _ _ _____ _ _ ____
 72
    65
 73
     6
 40
2.500000
 49
1.250000
 74
     0
 49
-0.250000
 74
     0
 49
0.250000
 74
     0
 49
-0.250000
 74
     0
 49
0.250000
 74
     0
 49
-0.250000
 74
     0
  0
LTYPE
  5
c0
100
AcDbSymbolTableRecord
100
AcDbLinetypeTableRecord
  2
DOT
 70
    64
  3
...............................................
 72
    65
 73
     2
 40
0.250000
 49
0.000000
 74
     0
 49
-0.250000
 74
     0
  0
LTYPE
  5
c3
100
AcDbSymbolTableRecord
100
AcDbLinetypeTableRecord
  2
DASHDOT
 70
    64
  3
__ . __ . __ . __ . __ . __ . __ . __ . __ . __
 72
    65
 73
     4
 40
1.000000
 49
0.500000
 74
     0
 49
-0.250000
 74
     0
 49
0.000000
 74
     0
 49
-0.250000
 74
     0
  0
LTYPE
  5
c6
100
AcDbSymbolTableRecord
100
AcDbLinetypeTableRecord
  2
BORDER
 70
    64
  3
__ __ . __ __ . __ __ . __ __ . __ __ . __ __
 72
    65
 73
     6
 40
1.750000
 49
0.500000
 74
     0
 49
-0.250000
 74
     0
 49
0.500000
 74
     0
 49
-0.250000
 74
     0
 49
0.000000
 74
     0
 49
-0.250000
 74
     0
  0
LTYPE
  5
c9
100
AcDbSymbolTableRecord
100
AcDbLinetypeTableRecord
  2
DIVIDE
 70
    64
  3
__ . . __ . . __ . . __ . . __ . . __ . . __
 72
    65
 73
     6
 40
1.250000
 49
0.500000
 74
     0
 49
-0.250000
 74
     0
 49
0.000000
 74
     0
 49
-0.250000
 74
     0
 49
0.000000
 74
     0
 49
-0.250000
 74
     0
  0
ENDTAB
  0
TABLE
  2
LAYER
  5
cc
100
AcDbSymbolTable
 70
     2
  0
LAYER
  5
cf
100
AcDbSymbolTableRecord
100
AcDbLayerTableRecord
  2
0
 70
     0
 62
     7
  6
CONTINUOUS
370
 65533
390
	F
  0
LAYER
  5
d2
100
AcDbSymbolTableRecord
100
AcDbLayerTableRecord
  2
B
 70
     0
 62
     7
  6
CONTINUOUS
370
 65533
390
	F
  0
LAYER
  5
d5
100
AcDbSymbolTableRecord
100
AcDbLayerTableRecord
  2
C
 70
     0
 62
     7
  6
CONTINUOUS
370
 65533
390
	F
  0
LAYER
  5
d8
100
AcDbSymbolTableRecord
100
AcDbLayerTableRecord
  2
D
 70
     0
 62
     7
  6
CONTINUOUS
370
 65533
390
	F
  0
LAYER
  5
db
100
AcDbSymbolTableRecord
100
AcDbLayerTableRecord
  2
E
 70
     0
 62
     7
  6
CONTINUOUS
370
 65533
390
	F
  0
LAYER
  5
de
100
AcDbSymbolTableRecord
100
AcDbLayerTableRecord
  2
F
 70
     0
 62
     7
  6
CONTINUOUS
370
 65533
390
	F
  0
LAYER
  5
e1
100
AcDbSymbolTableRecord
100
AcDbLayerTableRecord
  2
G
 70
     0
 62
     7
  6
CONTINUOUS
370
 65533
390
	F
  0
LAYER
  5
e4
100
AcDbSymbolTableRecord
100
AcDbLayerTableRecord
  2
H
 70
     0
 62
     7
  6
CONTINUOUS
370
 65533
390
	F
  0
LAYER
  5
e7
100
AcDbSymbolTableRecord
100
AcDbLayerTableRecord
  2
I
 70
     0
 62
     7
  6
CONTINUOUS
370
 65533
390
	F
  0
LAYER
  5
ea
100
AcDbSymbolTableRecord
100
AcDbLayerTableRecord
  2
J
 70
     0
 62
     7
  6
CONTINUOUS
370
 65533
390
	F
  0
LAYER
  5
ed
100
AcDbSymbolTableRecord
100
AcDbLayerTableRecord
  2
K
 70
     0
 62
     7
  6
CONTINUOUS
370
 65533
390
	F
  0
LAYER
  5
f0
100
AcDbSymbolTableRecord
100
AcDbLayerTableRecord
  2
L
 70
     0
 62
     7
  6
CONTINUOUS
370
 65533
390
	F
  0
LAYER
  5
f3
100
AcDbSymbolTableRecord
100
AcDbLayerTableRecord
  2
M
 70
     0
 62
     7
  6
CONTINUOUS
370
 65533
390
	F
  0
LAYER
  5
f6
100
AcDbSymbolTableRecord
100
AcDbLayerTableRecord
  2
N
 70
     0
 62
     7
  6
CONTINUOUS
370
 65533
390
	F
  0
ENDTAB
  0
TABLE
  2
STYLE
  5
f9
100
AcDbSymbolTable
 70
     2
  0
STYLE
  5
fc
100
AcDbSymbolTableRecord
100
AcDbTextStyleTableRecord
  2
STANDARD
 70
     0
 40
0.000000
 41
0.500000
 50
0.000000
 71
     0
 42
0.300000
  3
txt
  4

  0
STYLE
  5
ff
100
AcDbSymbolTableRecord
100
AcDbTextStyleTableRecord
  2
BIGFONT
 70
    64
 40
0.000000
 41
1.000000
 50
0.000000
 71
     0
 42
0.200000
  3

  4
bigfont
  0
ENDTAB
  0
TABLE
  2
VIEW
  5
102
100
AcDbSymbolTable
 70
     0
  0
ENDTAB
  0
TABLE
  2
UCS
  5
105
100
AcDbSymbolTable
 70
     0
  0
ENDTAB
  0
TABLE
  2
APPID
  5
108
100
AcDbSymbolTable
 70
     3
  0
APPID
  5
10b
100
AcDbSymbolTableRecord
100
AcDbRegAppTableRecord
  2
ACAD
 70
     0
  0
APPID
  5
10e
100
AcDbSymbolTableRecord
100
AcDbRegAppTableRecord
  2
CONTENTTABDATA
 70
     0
  0
APPID
  5
111
100
AcDbSymbolTableRecord
100
AcDbRegAppTableRecord
  2
CONTENTCURRENTTAB
 70
     0
  0
ENDTAB
  0
TABLE
  2
DIMSTYLE
  5
114
330
     0
100
AcDbSymbolTable
 70
     2
100
AcDbDimStyleTable
 70
     1
  0
DIMSTYLE
105
117
100
AcDbSymbolTableRecord
100
AcDbDimStyleTableRecord
  2
STANDARD
 70
     0
  3

  4

  5

  6

  7

 40
1.000000
 41
0.180000
 42
0.062500
 43
0.380000
 44
0.180000
 45
0.000000
 46
0.000000
 47
0.000000
 48
0.000000
140
0.180000
141
0.090000
142
0.000000
143
25.400000
144
1.000000
145
0.000000
146
1.000000
147
0.090000
 71
     0
 72
     0
 73
     1
 74
     1
 75
     0
 76
     0
 77
     0
 78
     0
170
     0
171
     2
172
     0
173
     0
174
     0
175
     0
176
     0
177
     0
178
     0
270
     2
271
     4
272
     4
273
     2
274
     2
340
fc
275
     0
280
     0
281
     0
282
     0
283
     1
284
     0
285
     0
286
     0
287
     3
288
     0
  0
ENDTAB
  0
TABLE
  2
BLOCK_RECORD
  5
11a
100
AcDbSymbolTable
 70
     0
  0
BLOCK_RECORD
  5
11d
100
AcDbSymbolTableRecord
100
AcDbBlockTableRecord
  2
*MODEL_SPACE
  0
BLOCK_RECORD
  5
120
100
AcDbSymbolTableRecord
100
AcDbBlockTableRecord
  2
*PAPER_SPACE
  0
ENDTAB
  0
ENDSEC
  0
SECTION
  2
BLOCKS
  0
BLOCK
  5
123
330
124
100
AcDbEntity
  8
0
100
AcDbBlockBegin
  2
*Model_Space
 70
     0
 10
0.000000
 20
0.000000
 30
0.000000
  3
*Model_Space
  1
 
  0
ENDBLK
  5
126
330
124
100
AcDbEntity
  8
0
100
AcDbBlockEnd
  0
BLOCK
  5
129
330
12a
100
AcDbEntity
 67
     1
  8
0
100
AcDbBlockBegin
  2
*Paper_Space
 70
     0
 10
0.000000
 20
0.000000
 30
0.000000
  3
*Paper_Space
  1
 
  0
ENDBLK
  5
12c
330
12d
100
AcDbEntity
 67
     1
  8
0
100
AcDbBlockEnd
  0
ENDSEC
  0
SECTION
  2
ENTITIES
  0
LWPOLYLINE
  5
12f
100
AcDbEntity
  8
0
100
AcDbPolyline
 90
     4
 70
     0
 43
0.200000
 10
35.525000
 20
248.225000
 10
35.525000
 20
250.750000
 10
41.550000
 20
250.750000
 10
41.550000
 20
248.225000
  0
LWPOLYLINE
  5
13a
100
AcDbEntity
  8
0
100
AcDbPolyline
 90
     3
 70
     0
 43
0.200000
 10
103.100000
 20
246.300000
 10
107.525000
 20
246.300000
 10
107.525000
 20
244.725000
  0
LWPOLYLINE
  5
143
100
AcDbEntity
  8
0
100
AcDbPolyline
 90
     3
 70
     0
 43
0.200000
 10
108.800000
 20
244.725000
 10
108.800000
 20
246.300000
 10
128.150000
 20
246.300000
  0
LINE
  5
14c
100
AcDbEntity
  8
0
370
    20
100
AcDbLine
 10
45.350000
 20
243.775000
 11
45.350000
 21
245.350000
  0
LINE
  5
14f
100
AcDbEntity
  8
0
370
    20
100
AcDbLine
 10
40.925000
 20
248.225000
 11
40.925000
 21
245.350000
  0
LINE
  5
152
100
AcDbEntity
  8
0
370
    20
100
AcDbLine
 10
33.625000
 20
245.350000
 11
45.350000
 21
245.350000
  0
LWPOLYLINE
  5
155
100
AcDbEntity
  8
0
100
AcDbPolyline
 90
     4
 70
     0
 43
0.200000
 10
106.575000
 20
248.225000
 10
106.575000
 20
250.750000
 10
112.300000
 20
250.750000
 10
112.300000
 20
248.225000
  0
LINE
  5
160
100
AcDbEntity
  8
0
370
    20
100
AcDbLine
 10
115.775000
 20
248.225000
 11
115.775000
 21
246.300000
  0
LINE
  5
163
100
AcDbEntity
  8
0
370
    20
100
AcDbLine
 10
115.775000
 20
246.300000
 11
117.050000
 21
246.300000
  0
LINE
  5
166
100
AcDbEntity
  8
0
370
    20
100
AcDbLine
 10
117.050000
 20
246.300000
 11
117.050000
 21
248.225000
  0
LINE
  5
169
100
AcDbEntity
  8
0
370
    20
100
AcDbLine
 10
33.300000
 20
252.025000
 11
33.300000
 21
275.500000
  0
LINE
  5
16c
100
AcDbEntity
  8
0
370
    20
100
AcDbLine
 10
128.150000
 20
251.700000
 11
128.150000
 21
275.500000
  0
LINE
  5
16f
100
AcDbEntity
  8
0
370
    20
100
AcDbLine
 10
98.650000
 20
248.225000
 11
98.650000
 21
269.150000
  0
LINE
  5
172
100
AcDbEntity
  8
0
370
    20
100
AcDbLine
 10
45.350000
 20
248.225000
 11
45.350000
 21
252.650000
  0
LINE
  5
175
100
AcDbEntity
  8
0
370
    20
100
AcDbLine
 10
45.350000
 20
252.975000
 11
45.350000
 21
269.150000
  0
LINE
  5
178
100
AcDbEntity
  8
0
370
    20
100
AcDbLine
 10
36.150000
 20
252.975000
 11
36.150000
 21
259.950000
  0
LINE
  5
17b
100
AcDbEntity
  8
0
370
    20
100
AcDbLine
 10
40.925000
 20
252.975000
 11
40.925000
 21
259.950000
  0
LINE
  5
17e
100
AcDbEntity
  8
0
370
    20
100
AcDbLine
 10
34.575000
 20
252.650000
 11
17.125000
 21
252.650000
  0
LINE
  5
181
100
AcDbEntity
  8
0
370
    20
100
AcDbLine
 10
32.350000
 20
251.075000
 11
25.050000
 21
251.075000
  0
LINE
  5
184
100
AcDbEntity
  8
0
370
    20
100
AcDbLine
 10
34.575000
 20
243.775000
 11
17.125000
 21
243.775000
  0
LINE
  5
187
100
AcDbEntity
  8
0
370
    20
100
AcDbLine
 10
32.350000
 20
245.350000
 11
25.050000
 21
245.350000
  0
MTEXT
  5
18a
100
AcDbEntity
  8
0
100
AcDbMText
 10
37.600000
 20
261.950000
 40
2.475000
 41
4.455000
 71
     1
 72
     5
  1
\fＭＳ ゴシック|b0|i0|c128|p49;\T0.9100;31
 44
0.987879
 73
     1
  7
BIGFONT
  0
MTEXT
  5
18d
100
AcDbEntity
  8
0
100
AcDbMText
 10
28.700000
 20
262.275000
 40
2.475000
 41
4.455000
 71
     1
 72
     5
  1
\fＭＳ ゴシック|b0|i0|c128|p49;\T0.9100;19
 44
0.987879
 73
     1
  7
BIGFONT
  0
MTEXT
  5
190
100
AcDbEntity
  8
0
100
AcDbMText
 10
46.800000
 20
262.275000
 40
2.475000
 41
4.455000
 71
     1
 72
     5
  1
\fＭＳ ゴシック|b0|i0|c128|p49;\T0.9100;25
 44
0.987879
 73
     1
  7
BIGFONT
  0
MTEXT
  5
193
100
AcDbEntity
  8
0
100
AcDbMText
 10
48.125000
 20
-548.350000
 40
2.475000
 41
4.455000
 71
     1
 72
     5
  1
\fＭＳ ゴシック|b0|i0|c128|p49;\T0.9100;35
 44
0.981818
 73
     1
 11
0.0000000000000000
 21
1.000000
 31
0.000000
  7
BIGFONT
  0
MTEXT
  5
196
100
AcDbEntity
  8
0
100
AcDbMText
 10
38.550000
 20
270.850000
 40
2.475000
 41
4.455000
 71
     1
 72
     5
  1
\fＭＳ ゴシック|b0|i0|c128|p49;\T0.9100;75
 44
0.987879
 73
     1
  7
BIGFONT
  0
MTEXT
  5
199
100
AcDbEntity
  8
0
100
AcDbMText
 10
68.375000
 20
270.850000
 40
2.475000
 41
6.682500
 71
     1
 72
     5
  1
\fＭＳ ゴシック|b0|i0|c128|p49;\T0.9100;560
 44
0.987879
 73
     1
  7
BIGFONT
  0
MTEXT
  5
19c
100
AcDbEntity
  8
0
100
AcDbMText
 10
111.825000
 20
270.850000
 40
2.475000
 41
6.682500
 71
     1
 72
     5
  1
\fＭＳ ゴシック|b0|i0|c128|p49;\T0.9100;175
 44
0.987879
 73
     1
  7
BIGFONT
  0
MTEXT
  5
19f
100
AcDbEntity
  8
0
100
AcDbMText
 10
15.700000
 20
240.075000
 40
1.856250
 41
17.820000
 71
     1
 72
     5
  1
\fＭＳ ゴシック|b0|i0|c128|p49;\T1.8854;φ19　47'
 44
1.226497
 73
     1
  7
BIGFONT
  0
LINE
  5
1a2
100
AcDbEntity
  8
0
370
    20
100
AcDbLine
 10
98.650000
 20
245.350000
 11
98.650000
 21
243.775000
  0
LINE
  5
1a5
100
AcDbEntity
  8
0
370
    20
100
AcDbLine
 10
103.100000
 20
252.650000
 11
103.100000
 21
259.000000
  0
LINE
  5
1a8
100
AcDbEntity
  8
0
370
    60
100
AcDbLine
 10
40.925000
 20
245.350000
 11
45.350000
 21
245.350000
  0
LINE
  5
1ab
100
AcDbEntity
  8
0
370
    60
100
AcDbLine
 10
98.650000
 20
245.350000
 11
103.100000
 21
245.350000
  0
LINE
  5
1ae
100
AcDbEntity
  8
0
370
    20
100
AcDbLine
 10
103.100000
 20
246.300000
 11
103.100000
 21
245.350000
  0
HATCH
  5
1b1
330
F6
100
AcDbEntity
  8
0
100
AcDbHatch
 10
0.0
 20
0.0
 30
0.0
210
0.0
220
0.0
230
1.0
  2
SOLID
 70
     1
 71
     0
 91
     1
 92
     7
 72
     0
 73
     1
 93
     4
 10
33.300000
 20
245.350000
 10
36.150000
 20
243.775000
 10
45.350000
 20
243.775000
 10
45.350000
 20
245.350000
 97
     1
330
1b4
 75
     0
 76
     1
 47
0.651316
 98
     1
 10
0.0
 20
0.0
  0
LWPOLYLINE
  5
1b4
330
F6
100
AcDbEntity
  8
0
100
AcDbPolyline
 90
     4
 70
     1
 43
0.200000
 10
33.300000
 20
245.350000
 10
36.150000
 20
243.775000
 10
45.350000
 20
243.775000
 10
45.350000
 20
245.350000
  0
HATCH
  5
1bf
330
F6
100
AcDbEntity
  8
0
100
AcDbHatch
 10
0.0
 20
0.0
 30
0.0
210
0.0
220
0.0
230
1.0
  2
SOLID
 70
     1
 71
     0
 91
     1
 92
     7
 72
     0
 73
     1
 93
     4
 10
45.350000
 20
245.350000
 10
45.350000
 20
243.775000
 10
98.650000
 20
243.775000
 10
98.650000
 20
245.350000
 97
     1
330
1c2
 75
     0
 76
     1
 47
0.651316
 98
     1
 10
0.0
 20
0.0
  0
LWPOLYLINE
  5
1c2
330
F6
100
AcDbEntity
  8
0
100
AcDbPolyline
 90
     4
 70
     1
 43
0.200000
 10
45.350000
 20
245.350000
 10
45.350000
 20
243.775000
 10
98.650000
 20
243.775000
 10
98.650000
 20
245.350000
  0
HATCH
  5
1cd
330
F6
100
AcDbEntity
  8
0
100
AcDbHatch
 10
0.0
 20
0.0
 30
0.0
210
0.0
220
0.0
230
1.0
  2
SOLID
 70
     1
 71
     0
 91
     1
 92
     7
 72
     0
 73
     1
 93
     8
 10
98.650000
 20
243.775000
 10
98.650000
 20
245.350000
 10
103.100000
 20
245.350000
 10
103.100000
 20
246.300000
 10
107.525000
 20
246.300000
 10
107.525000
 20
244.725000
 10
106.575000
 20
244.725000
 10
106.575000
 20
243.775000
 97
     1
330
1d0
 75
     0
 76
     1
 47
0.651316
 98
     1
 10
0.0
 20
0.0
  0
LWPOLYLINE
  5
1d0
330
F6
100
AcDbEntity
  8
0
100
AcDbPolyline
 90
     8
 70
     1
 43
0.200000
 10
98.650000
 20
243.775000
 10
98.650000
 20
245.350000
 10
103.100000
 20
245.350000
 10
103.100000
 20
246.300000
 10
107.525000
 20
246.300000
 10
107.525000
 20
244.725000
 10
106.575000
 20
244.725000
 10
106.575000
 20
243.775000
  0
HATCH
  5
1e3
330
F6
100
AcDbEntity
  8
0
100
AcDbHatch
 10
0.0
 20
0.0
 30
0.0
210
0.0
220
0.0
230
1.0
  2
SOLID
 70
     1
 71
     0
 91
     1
 92
     7
 72
     0
 73
     1
 93
     6
 10
128.150000
 20
246.300000
 10
125.300000
 20
243.775000
 10
112.300000
 20
243.775000
 10
112.300000
 20
244.725000
 10
108.800000
 20
244.725000
 10
108.800000
 20
246.300000
 97
     1
330
1e6
 75
     0
 76
     1
 47
0.651316
 98
     1
 10
0.0
 20
0.0
  0
LWPOLYLINE
  5
1e6
330
F6
100
AcDbEntity
  8
0
100
AcDbPolyline
 90
     6
 70
     1
 43
0.200000
 10
128.150000
 20
246.300000
 10
125.300000
 20
243.775000
 10
112.300000
 20
243.775000
 10
112.300000
 20
244.725000
 10
108.800000
 20
244.725000
 10
108.800000
 20
246.300000
  0
LINE
  5
1f5
100
AcDbEntity
  8
0
370
    20
100
AcDbLine
 10
33.300000
 20
272.950000
 11
128.150000
 21
272.950000
  0
LINE
  5
1f8
100
AcDbEntity
  8
0
370
    20
100
AcDbLine
 10
28.850000
 20
257.425000
 11
49.150000
 21
257.425000
  0
LINE
  5
1fb
100
AcDbEntity
  8
0
370
    20
100
AcDbLine
 10
33.300000
 20
267.250000
 11
128.150000
 21
267.250000
  0
LINE
  5
1fe
100
AcDbEntity
  8
0
370
    60
100
AcDbLine
 10
121.500000
 20
246.000000
 11
127.850000
 21
246.000000
  0
LINE
  5
201
100
AcDbEntity
  8
0
370
    20
100
AcDbLine
 10
33.300000
 20
272.950000
 11
36.150000
 21
273.600000
  0
LINE
  5
204
100
AcDbEntity
  8
0
370
    20
100
AcDbLine
 10
27.275000
 20
251.075000
 11
27.275000
 21
245.350000
  0
LINE
  5
207
100
AcDbEntity
  8
0
370
    20
100
AcDbLine
 10
94.200000
 20
257.425000
 11
106.900000
 21
257.425000
  0
LINE
  5
20a
100
AcDbEntity
  8
0
370
    20
100
AcDbLine
 10
128.150000
 20
272.950000
 11
125.300000
 21
273.600000
  0
LINE
  5
20d
100
AcDbEntity
  8
0
370
    20
100
AcDbLine
 10
128.150000
 20
267.250000
 11
125.300000
 21
267.575000
  0
LINE
  5
210
100
AcDbEntity
  8
0
370
    20
100
AcDbLine
 10
98.650000
 20
267.250000
 11
95.800000
 21
267.575000
  0
LINE
  5
213
100
AcDbEntity
  8
0
370
    20
100
AcDbLine
 10
45.350000
 20
267.250000
 11
42.500000
 21
267.575000
  0
LINE
  5
216
100
AcDbEntity
  8
0
370
    20
100
AcDbLine
 10
33.300000
 20
257.425000
 11
30.125000
 21
258.050000
  0
LINE
  5
219
100
AcDbEntity
  8
0
370
    20
100
AcDbLine
 10
98.650000
 20
257.425000
 11
95.800000
 21
258.050000
  0
LINE
  5
21c
100
AcDbEntity
  8
0
370
    20
100
AcDbLine
 10
40.925000
 20
257.425000
 11
39.000000
 21
258.050000
  0
LINE
  5
21f
100
AcDbEntity
  8
0
370
    20
100
AcDbLine
 10
33.300000
 20
267.250000
 11
36.150000
 21
267.575000
  0
LINE
  5
222
100
AcDbEntity
  8
0
370
    20
100
AcDbLine
 10
45.350000
 20
267.250000
 11
48.200000
 21
267.575000
  0
LINE
  5
225
100
AcDbEntity
  8
0
370
    20
100
AcDbLine
 10
98.650000
 20
267.250000
 11
101.500000
 21
267.575000
  0
LINE
  5
228
100
AcDbEntity
  8
0
370
    20
100
AcDbLine
 10
103.100000
 20
257.425000
 11
105.950000
 21
258.050000
  0
LINE
  5
22b
100
AcDbEntity
  8
0
370
    20
100
AcDbLine
 10
36.150000
 20
257.425000
 11
38.050000
 21
258.050000
  0
LINE
  5
22e
100
AcDbEntity
  8
0
370
    20
100
AcDbLine
 10
45.350000
 20
257.425000
 11
47.575000
 21
258.050000
  0
LINE
  5
231
100
AcDbEntity
  8
0
370
    20
100
AcDbLine
 10
26.950000
 20
248.850000
 11
27.275000
 21
251.075000
  0
LINE
  5
234
100
AcDbEntity
  8
0
370
    20
100
AcDbLine
 10
26.950000
 20
247.900000
 11
27.275000
 21
245.350000
  0
LINE
  5
237
100
AcDbEntity
  8
0
370
    20
100
AcDbLine
 10
33.300000
 20
272.950000
 11
35.525000
 21
273.600000
  0
LINE
  5
23a
100
AcDbEntity
  8
0
370
    20
100
AcDbLine
 10
33.300000
 20
267.250000
 11
35.525000
 21
267.575000
  0
LINE
  5
23d
100
AcDbEntity
  8
0
370
    20
100
AcDbLine
 10
128.150000
 20
272.950000
 11
125.300000
 21
273.600000
  0
LINE
  5
240
100
AcDbEntity
  8
0
370
    20
100
AcDbLine
 10
128.150000
 20
267.250000
 11
125.300000
 21
267.575000
  0
LINE
  5
243
100
AcDbEntity
  8
0
370
    20
100
AcDbLine
 10
103.100000
 20
257.425000
 11
105.000000
 21
258.050000
  0
LINE
  5
246
100
AcDbEntity
  8
0
370
    20
100
AcDbLine
 10
98.650000
 20
257.425000
 11
95.800000
 21
258.050000
  0
LINE
  5
249
100
AcDbEntity
  8
0
370
    20
100
AcDbLine
 10
45.350000
 20
257.425000
 11
48.200000
 21
258.050000
  0
MTEXT
  5
24c
100
AcDbEntity
  8
0
100
AcDbMText
 10
75.350000
 20
276.550000
 40
2.475000
 41
6.682500
 71
     1
 72
     5
  1
\fＭＳ ゴシック|b0|i0|c128|p49;\T0.9100;810
 44
0.987879
 73
     1
  7
BIGFONT
  0
LINE
  5
24f
100
AcDbEntity
  8
0
370
    20
100
AcDbLine
 10
19.650000
 20
243.775000
 11
19.650000
 21
252.650000
  0
LINE
  5
252
100
AcDbEntity
  8
0
370
    20
100
AcDbLine
 10
19.650000
 20
252.650000
 11
19.025000
 21
249.800000
  0
LINE
  5
255
100
AcDbEntity
  8
0
370
    20
100
AcDbLine
 10
19.650000
 20
243.775000
 11
19.025000
 21
246.950000
  0
MTEXT
  5
258
100
AcDbEntity
  8
0
100
AcDbMText
 10
104.225000
 20
233.725000
 40
1.856250
 41
28.957500
 71
     1
 72
     5
  1
\fＭＳ ゴシック|b0|i0|c128|p49;\T1.8854;ねじ継手(8山)
 44
1.226497
 73
     1
  7
BIGFONT
  0
MTEXT
  5
25b
100
AcDbEntity
  8
0
100
AcDbMText
 10
111.825000
 20
241.025000
 40
1.856250
 41
20.047500
 71
     1
 72
     5
  1
\fＭＳ ゴシック|b0|i0|c128|p49;\T1.8854;排水孔4孔
 44
1.226497
 73
     1
  7
BIGFONT
  0
MTEXT
  5
25e
100
AcDbEntity
  8
0
100
AcDbMText
 10
70.100000
 20
237.975000
 40
1.856250
 41
17.125000
 71
     1
 72
     5
  1
\fＭＳ ゴシック|b0|i0|c128|p49;\T1.8854;サンフ　リンク　   スフ　ーン  (二つ割り)
 44
1.174837
 73
     1
  7
BIGFONT
  0
MTEXT
  5
261
100
AcDbEntity
  8
0
100
AcDbMText
 10
120.075000
 20
259.425000
 40
1.856250
 41
17.820000
 71
     1
 72
     5
  1
\fＭＳ ゴシック|b0|i0|c128|p49;\T1.8854;コネクタヘット　
 44
1.226497
 73
     1
  7
BIGFONT
  0
MTEXT
  5
264
100
AcDbEntity
  8
0
100
AcDbMText
 10
44.075000
 20
237.950000
 40
1.856250
 41
14.600000
 71
     1
 72
     5
  1
\fＭＳ ゴシック|b0|i0|c128|p49;\T1.8854;ねじ継手  (8山)
 44
1.189552
 73
     1
  7
BIGFONT
  0
MTEXT
  5
267
100
AcDbEntity
  8
0
100
AcDbMText
 10
130.875000
 20
232.775000
 40
1.856250
 41
24.502500
 71
     1
 72
     5
  1
\fＭＳ ゴシック|b0|i0|c128|p49;\T1.8854;（単位 mm）
 44
1.226497
 73
     1
  7
BIGFONT
  0
MTEXT
  5
26a
100
AcDbEntity
  8
0
100
AcDbMText
 10
99.775000
 20
261.000000
 40
2.475000
 41
4.455000
 71
     1
 72
     5
  1
\fＭＳ ゴシック|b0|i0|c128|p49;\T0.9100;25
 44
0.987879
 73
     1
  7
BIGFONT
  0
MTEXT
  5
26d
100
AcDbEntity
  8
0
100
AcDbMText
 10
110.875000
 20
265.125000
 40
1.856250
 41
20.047500
 71
     1
 72
     5
  1
\fＭＳ ゴシック|b0|i0|c128|p49;\T1.8854;レンチク　リッフ　
 44
1.226497
 73
     1
  7
BIGFONT
  0
LWPOLYLINE
  5
270
100
AcDbEntity
  8
0
100
AcDbPolyline
 90
     3
 70
     0
 43
0.200000
 10
30.750000
 20
239.975000
 10
34.575000
 20
244.400000
 10
33.625000
 20
241.550000
  0
LWPOLYLINE
  5
279
100
AcDbEntity
  8
0
100
AcDbPolyline
 90
     3
 70
     0
 43
0.200000
 10
38.050000
 20
239.025000
 10
39.000000
 20
244.725000
 10
39.325000
 20
241.550000
  0
LWPOLYLINE
  5
282
100
AcDbEntity
  8
0
100
AcDbPolyline
 90
     3
 70
     0
 43
0.200000
 10
46.625000
 20
239.025000
 10
43.450000
 20
245.350000
 10
44.400000
 20
241.875000
  0
LWPOLYLINE
  5
28b
100
AcDbEntity
  8
0
100
AcDbPolyline
 90
     3
 70
     0
 43
0.200000
 10
70.100000
 20
238.700000
 10
66.600000
 20
244.725000
 10
67.550000
 20
240.925000
  0
LWPOLYLINE
  5
294
100
AcDbEntity
  8
0
100
AcDbPolyline
 90
     3
 70
     0
 43
0.200000
 10
104.675000
 20
233.625000
 10
101.200000
 20
245.350000
 10
101.200000
 20
240.925000
  0
LWPOLYLINE
  5
29d
100
AcDbEntity
  8
0
100
AcDbPolyline
 90
     3
 70
     0
 43
0.200000
 10
111.350000
 20
239.650000
 10
108.475000
 20
244.725000
 10
109.450000
 20
240.925000
  0
LWPOLYLINE
  5
2a6
100
AcDbEntity
  8
0
100
AcDbPolyline
 90
     3
 70
     0
 43
0.200000
 10
119.900000
 20
256.150000
 10
117.675000
 20
250.125000
 10
118.000000
 20
254.550000
  0
LWPOLYLINE
  5
2af
100
AcDbEntity
  8
0
100
AcDbPolyline
 90
     3
 70
     0
 43
0.200000
 10
110.400000
 20
261.225000
 10
109.450000
 20
249.800000
 10
108.800000
 20
255.500000
  0
LWPOLYLINE
  5
2b8
100
AcDbEntity
  8
0
100
AcDbPolyline
 90
     4
 70
     0
 43
0.200000
 10
57.400000
 20
254.550000
 10
56.150000
 20
250.125000
 10
59.000000
 20
245.675000
 10
57.100000
 20
241.550000
  0
LWPOLYLINE
  5
2c3
100
AcDbEntity
  8
0
100
AcDbPolyline
 90
     4
 70
     0
 43
0.200000
 10
59.950000
 20
254.550000
 10
58.350000
 20
250.125000
 10
61.225000
 20
245.675000
 10
59.325000
 20
241.550000
  0
LINE
  5
2ce
100
AcDbEntity
  8
0
370
    40
100
AcDbLine
 10
33.300000
 20
248.225000
 11
33.300000
 21
251.075000
  0
LINE
  5
2d1
100
AcDbEntity
  8
0
370
    40
100
AcDbLine
 10
33.300000
 20
251.075000
 11
36.150000
 21
252.650000
  0
LINE
  5
2d4
100
AcDbEntity
  8
0
370
    40
100
AcDbLine
 10
106.575000
 20
252.650000
 11
106.575000
 21
251.700000
  0
LINE
  5
2d7
100
AcDbEntity
  8
0
370
    40
100
AcDbLine
 10
106.575000
 20
251.700000
 11
112.300000
 21
251.700000
  0
LINE
  5
2da
100
AcDbEntity
  8
0
370
    40
100
AcDbLine
 10
112.300000
 20
251.700000
 11
112.300000
 21
252.650000
  0
LINE
  5
2dd
100
AcDbEntity
  8
0
370
    40
100
AcDbLine
 10
112.300000
 20
252.650000
 11
125.925000
 21
252.650000
  0
LINE
  5
2e0
100
AcDbEntity
  8
0
370
    40
100
AcDbLine
 10
125.925000
 20
252.650000
 11
128.150000
 21
250.125000
  0
LINE
  5
2e3
100
AcDbEntity
  8
0
370
    40
100
AcDbLine
 10
128.150000
 20
250.125000
 11
128.150000
 21
248.225000
  0
LINE
  5
2e6
100
AcDbEntity
  8
0
  6
DASHED
 62
     7
370
    20
100
AcDbLine
 10
45.350000
 20
245.350000
 11
45.350000
 21
243.775000
  0
LINE
  5
2e9
100
AcDbEntity
  8
0
  6
DASHED
 62
     7
370
    20
100
AcDbLine
 10
98.650000
 20
243.775000
 11
98.650000
 21
245.350000
  0
LINE
  5
2ec
100
AcDbEntity
  8
0
370
    40
100
AcDbLine
 10
36.150000
 20
252.650000
 11
56.450000
 21
252.650000
  0
LINE
  5
2ef
100
AcDbEntity
  8
0
370
    40
100
AcDbLine
 10
59.000000
 20
252.650000
 11
106.575000
 21
252.650000
  0
LINE
  5
2f2
100
AcDbEntity
  8
0
  6
DASHDOT
 62
     7
370
    20
100
AcDbLine
 10
31.075000
 20
248.225000
 11
57.100000
 21
248.225000
  0
LINE
  5
2f5
100
AcDbEntity
  8
0
  6
DASHDOT
 62
     7
370
    20
100
AcDbLine
 10
59.325000
 20
248.225000
 11
133.875000
 21
248.225000
  0
LINE
  5
2f8
100
AcDbEntity
  8
0
  6
DASHED
 62
     7
370
    20
100
AcDbLine
 10
45.350000
 20
245.350000
 11
58.350000
 21
245.350000
  0
LINE
  5
2fb
100
AcDbEntity
  8
0
  6
DASHED
 62
     7
370
    20
100
AcDbLine
 10
60.900000
 20
245.350000
 11
98.650000
 21
245.350000
  0
LINE
  5
2fe
100
AcDbEntity
  8
0
  6
DASHED
 62
     7
370
    20
100
AcDbLine
 10
45.350000
 20
243.775000
 11
58.050000
 21
243.775000
  0
LINE
  5
301
100
AcDbEntity
  8
0
  6
DASHED
 62
     7
370
    20
100
AcDbLine
 10
60.275000
 20
243.775000
 11
98.650000
 21
243.775000
  0
LINE
  5
304
100
AcDbEntity
  8
0
370
    40
100
AcDbLine
 10
33.300000
 20
248.225000
 11
33.300000
 21
245.350000
  0
LINE
  5
307
100
AcDbEntity
  8
0
370
    40
100
AcDbLine
 10
33.300000
 20
245.350000
 11
36.150000
 21
243.775000
  0
LINE
  5
30a
100
AcDbEntity
  8
0
370
    40
100
AcDbLine
 10
106.575000
 20
243.775000
 11
106.575000
 21
244.725000
  0
LINE
  5
30d
100
AcDbEntity
  8
0
370
    40
100
AcDbLine
 10
106.575000
 20
244.725000
 11
112.300000
 21
244.725000
  0
LINE
  5
310
100
AcDbEntity
  8
0
370
    40
100
AcDbLine
 10
112.300000
 20
244.725000
 11
112.300000
 21
243.775000
  0
LINE
  5
313
100
AcDbEntity
  8
0
370
    40
100
AcDbLine
 10
112.300000
 20
243.775000
 11
125.925000
 21
243.775000
  0
LINE
  5
316
100
AcDbEntity
  8
0
370
    40
100
AcDbLine
 10
125.925000
 20
243.775000
 11
128.150000
 21
246.300000
  0
LINE
  5
319
100
AcDbEntity
  8
0
370
    40
100
AcDbLine
 10
128.150000
 20
246.300000
 11
128.150000
 21
248.225000
  0
LINE
  5
31c
100
AcDbEntity
  8
0
370
    40
100
AcDbLine
 10
36.150000
 20
243.775000
 11
58.050000
 21
243.775000
  0
LINE
  5
31f
100
AcDbEntity
  8
0
370
    40
100
AcDbLine
 10
60.275000
 20
243.775000
 11
106.575000
 21
243.775000
  0
HATCH
  5
322
330
F6
100
AcDbEntity
  8
0
100
AcDbHatch
 10
0.0
 20
0.0
 30
0.0
210
0.0
220
0.0
230
1.0
  2
SOLID
 70
     1
 71
     0
 91
     1
 92
     7
 72
     0
 73
     1
 93
     4
 10
59.000000
 20
245.350000
 10
60.900000
 20
245.350000
 10
59.325000
 20
242.500000
 10
58.050000
 20
242.825000
 97
     1
330
325
 75
     0
 76
     1
 47
0.651316
 98
     1
 10
0.0
 20
0.0
  0
LWPOLYLINE
  5
325
330
F6
100
AcDbEntity
  8
0
100
AcDbPolyline
 90
     4
 70
     1
 43
0.200000
 10
59.000000
 20
245.350000
 10
60.900000
 20
245.350000
 10
59.325000
 20
242.500000
 10
58.050000
 20
242.825000
  0
MTEXT
  5
330
100
AcDbEntity
  8
0
100
AcDbMText
 10
42.550000
 20
239.350000
 40
1.856250
 41
20.998828
 71
     1
 72
     5
 44
1.000000
 73
     1
  1
\W1;\T1.8854;\f@ＭＳ ゴシック|b0|i0|c128|p49;ドライ\T1.8813;ブ
 11
-0.000000000000000
 21
-1.000000
 31
0.000000
  7
BIGFONT
  0
MTEXT
  5
333
100
AcDbEntity
  8
0
100
AcDbMText
 10
38.300000
 20
239.350000
 40
1.856250
 41
20.998828
 71
     1
 72
     5
 44
1.000000
 73
     1
  1
\fＭＳ ゴシック|b0|i0|c128|p49;\H1.8563;\T0.9067; \f@ＭＳ ゴシック|b0|i0|c128|p49;\H1.8563;\T1.8854;シュー
 11
-0.000000000000000
 21
-1.000000
 31
0.000000
  7
BIGFONT
  0
MTEXT
  5
336
100
AcDbEntity
  8
0
100
AcDbMText
 10
54.400000
 20
223.900000
 40
1.856250
 41
66.825000
 71
     1
 72
     5
  1
\fＭＳ ゴシック|b0|i0|c128|p49;\T1.8854;（ａ）標準貫入試験用サンプラー
 44
1.226497
 73
     1
  7
BIGFONT
  0
LINE
  5
339
100
AcDbEntity
  8
0
  6
DASHDOT
 62
     7
370
    20
100
AcDbLine
 10
74.225000
 20
216.175000
 11
74.225000
 21
158.125000
  0
LINE
  5
33c
100
AcDbEntity
  8
0
  6
DASHDOT
 62
     7
370
    20
100
AcDbLine
 10
63.450000
 20
212.050000
 11
85.650000
 21
212.050000
  0
LINE
  5
33f
100
AcDbEntity
  8
0
370
    20
100
AcDbLine
 10
71.675000
 20
162.250000
 11
71.675000
 21
191.100000
  0
LINE
  5
342
100
AcDbEntity
  8
0
370
    20
100
AcDbLine
 10
27.275000
 20
207.600000
 11
27.275000
 21
167.950000
  0
LINE
  5
345
100
AcDbEntity
  8
0
370
    20
100
AcDbLine
 10
25.375000
 20
207.600000
 11
25.375000
 21
167.950000
  0
LWPOLYLINE
  5
348
100
AcDbEntity
  8
0
100
AcDbPolyline
 90
    16
 70
     0
 43
0.200000
 10
30.750000
 20
207.600000
 10
30.750000
 20
206.975000
 10
29.800000
 20
206.975000
 10
29.800000
 20
206.350000
 10
30.750000
 20
206.350000
 10
30.750000
 20
205.700000
 10
29.800000
 20
205.700000
 10
29.800000
 20
204.750000
 10
30.750000
 20
204.750000
 10
30.750000
 20
204.125000
 10
29.800000
 20
204.125000
 10
29.800000
 20
203.475000
 10
30.750000
 20
203.475000
 10
30.750000
 20
202.525000
 10
29.800000
 20
202.525000
 10
29.800000
 20
201.900000
  0
LWPOLYLINE
  5
36b
100
AcDbEntity
  8
0
100
AcDbPolyline
 90
    16
 70
     0
 43
0.200000
 10
24.425000
 20
207.600000
 10
24.425000
 20
206.975000
 10
23.475000
 20
206.975000
 10
23.475000
 20
206.350000
 10
24.425000
 20
206.350000
 10
24.425000
 20
205.700000
 10
23.475000
 20
205.700000
 10
23.475000
 20
204.750000
 10
24.425000
 20
204.750000
 10
24.425000
 20
204.125000
 10
23.475000
 20
204.125000
 10
23.475000
 20
203.475000
 10
24.425000
 20
203.475000
 10
24.425000
 20
202.850000
 10
23.475000
 20
202.850000
 10
23.475000
 20
202.225000
  0
LWPOLYLINE
  5
38e
100
AcDbEntity
  8
0
100
AcDbPolyline
 90
    16
 70
     0
 43
0.200000
 10
30.750000
 20
173.650000
 10
30.750000
 20
173.025000
 10
29.800000
 20
173.025000
 10
29.800000
 20
172.075000
 10
30.750000
 20
172.075000
 10
30.750000
 20
171.450000
 10
29.800000
 20
171.450000
 10
29.800000
 20
170.800000
 10
30.750000
 20
170.800000
 10
30.750000
 20
170.175000
 10
29.800000
 20
170.175000
 10
29.800000
 20
169.225000
 10
30.750000
 20
169.225000
 10
30.750000
 20
168.575000
 10
29.800000
 20
168.575000
 10
29.800000
 20
167.950000
  0
LWPOLYLINE
  5
3b1
100
AcDbEntity
  8
0
100
AcDbPolyline
 90
    16
 70
     0
 43
0.200000
 10
24.425000
 20
173.650000
 10
24.425000
 20
173.025000
 10
23.475000
 20
173.025000
 10
23.475000
 20
172.075000
 10
24.425000
 20
172.075000
 10
24.425000
 20
171.450000
 10
23.475000
 20
171.450000
 10
23.475000
 20
170.800000
 10
24.425000
 20
170.800000
 10
24.425000
 20
170.175000
 10
23.475000
 20
170.175000
 10
23.475000
 20
169.225000
 10
24.425000
 20
169.225000
 10
24.425000
 20
168.575000
 10
23.475000
 20
168.575000
 10
23.475000
 20
168.275000
  0
LINE
  5
3d4
100
AcDbEntity
  8
0
370
    20
100
AcDbLine
 10
24.425000
 20
206.975000
 11
24.425000
 21
207.300000
  0
LINE
  5
3d7
100
AcDbEntity
  8
0
370
    20
100
AcDbLine
 10
27.275000
 20
207.600000
 11
29.800000
 21
207.600000
  0
LINE
  5
3da
100
AcDbEntity
  8
0
370
    20
100
AcDbLine
 10
27.275000
 20
206.650000
 11
29.800000
 21
206.975000
  0
LINE
  5
3dd
100
AcDbEntity
  8
0
370
    20
100
AcDbLine
 10
24.425000
 20
205.700000
 11
24.425000
 21
205.700000
  0
LINE
  5
3e0
100
AcDbEntity
  8
0
370
    20
100
AcDbLine
 10
29.800000
 20
206.350000
 11
27.275000
 21
206.025000
  0
LINE
  5
3e3
100
AcDbEntity
  8
0
370
    20
100
AcDbLine
 10
27.275000
 20
205.375000
 11
29.800000
 21
205.700000
  0
LINE
  5
3e6
100
AcDbEntity
  8
0
370
    20
100
AcDbLine
 10
24.425000
 20
204.125000
 11
24.425000
 21
204.425000
  0
LINE
  5
3e9
100
AcDbEntity
  8
0
370
    20
100
AcDbLine
 10
29.800000
 20
204.750000
 11
27.275000
 21
204.425000
  0
LINE
  5
3ec
100
AcDbEntity
  8
0
370
    20
100
AcDbLine
 10
27.275000
 20
203.800000
 11
29.800000
 21
204.125000
  0
LINE
  5
3ef
100
AcDbEntity
  8
0
370
    20
100
AcDbLine
 10
24.425000
 20
202.850000
 11
24.425000
 21
202.850000
  0
LINE
  5
3f2
100
AcDbEntity
  8
0
370
    20
100
AcDbLine
 10
29.800000
 20
203.475000
 11
27.275000
 21
203.175000
  0
LINE
  5
3f5
100
AcDbEntity
  8
0
370
    20
100
AcDbLine
 10
27.275000
 20
202.225000
 11
29.800000
 21
202.525000
  0
LINE
  5
3f8
100
AcDbEntity
  8
0
370
    20
100
AcDbLine
 10
25.375000
 20
201.900000
 11
25.675000
 21
201.900000
  0
LINE
  5
3fb
100
AcDbEntity
  8
0
370
    20
100
AcDbLine
 10
23.475000
 20
167.950000
 11
29.800000
 21
167.950000
  0
LINE
  5
3fe
100
AcDbEntity
  8
0
370
    20
100
AcDbLine
 10
24.425000
 20
207.600000
 11
30.750000
 21
207.600000
  0
LINE
  5
401
100
AcDbEntity
  8
0
370
    20
100
AcDbLine
 10
21.250000
 20
193.975000
 11
21.250000
 21
180.950000
  0
LINE
  5
404
100
AcDbEntity
  8
0
370
    20
100
AcDbLine
 10
32.975000
 20
180.950000
 11
32.975000
 21
193.975000
  0
LINE
  5
407
100
AcDbEntity
  8
0
370
    20
100
AcDbLine
 10
30.750000
 20
207.600000
 11
30.750000
 21
206.975000
  0
LINE
  5
40a
100
AcDbEntity
  8
0
370
    20
100
AcDbLine
 10
30.750000
 20
206.350000
 11
30.750000
 21
205.700000
  0
LINE
  5
40d
100
AcDbEntity
  8
0
370
    20
100
AcDbLine
 10
30.750000
 20
204.750000
 11
30.750000
 21
204.125000
  0
LINE
  5
410
100
AcDbEntity
  8
0
370
    20
100
AcDbLine
 10
23.475000
 20
206.975000
 11
23.475000
 21
206.350000
  0
LINE
  5
413
100
AcDbEntity
  8
0
370
    20
100
AcDbLine
 10
23.475000
 20
205.700000
 11
23.475000
 21
204.750000
  0
LINE
  5
416
100
AcDbEntity
  8
0
370
    20
100
AcDbLine
 10
23.475000
 20
204.125000
 11
23.475000
 21
203.475000
  0
LINE
  5
419
100
AcDbEntity
  8
0
370
    20
100
AcDbLine
 10
30.750000
 20
203.475000
 11
30.750000
 21
202.525000
  0
LINE
  5
41c
100
AcDbEntity
  8
0
370
    20
100
AcDbLine
 10
29.800000
 20
173.650000
 11
27.275000
 21
173.350000
  0
LINE
  5
41f
100
AcDbEntity
  8
0
370
    20
100
AcDbLine
 10
29.800000
 20
173.025000
 11
27.275000
 21
172.700000
  0
LINE
  5
422
100
AcDbEntity
  8
0
370
    20
100
AcDbLine
 10
29.800000
 20
172.075000
 11
27.275000
 21
171.750000
  0
LINE
  5
425
100
AcDbEntity
  8
0
370
    20
100
AcDbLine
 10
29.800000
 20
171.450000
 11
27.275000
 21
171.125000
  0
LINE
  5
428
100
AcDbEntity
  8
0
370
    20
100
AcDbLine
 10
29.800000
 20
170.800000
 11
27.275000
 21
170.500000
  0
LINE
  5
42b
100
AcDbEntity
  8
0
370
    20
100
AcDbLine
 10
29.800000
 20
170.175000
 11
27.275000
 21
169.850000
  0
LINE
  5
42e
100
AcDbEntity
  8
0
370
    20
100
AcDbLine
 10
29.800000
 20
169.225000
 11
27.275000
 21
168.900000
  0
LINE
  5
431
100
AcDbEntity
  8
0
370
    20
100
AcDbLine
 10
29.800000
 20
168.575000
 11
27.275000
 21
168.275000
  0
LINE
  5
434
100
AcDbEntity
  8
0
370
    20
100
AcDbLine
 10
23.475000
 20
173.025000
 11
23.475000
 21
172.075000
  0
LINE
  5
437
100
AcDbEntity
  8
0
370
    20
100
AcDbLine
 10
23.475000
 20
171.450000
 11
23.475000
 21
170.800000
  0
LINE
  5
43a
100
AcDbEntity
  8
0
370
    20
100
AcDbLine
 10
23.475000
 20
170.175000
 11
23.475000
 21
169.225000
  0
LINE
  5
43d
100
AcDbEntity
  8
0
370
    20
100
AcDbLine
 10
23.475000
 20
168.575000
 11
23.475000
 21
167.950000
  0
LINE
  5
440
100
AcDbEntity
  8
0
370
    20
100
AcDbLine
 10
30.750000
 20
172.075000
 11
30.750000
 21
171.450000
  0
LINE
  5
443
100
AcDbEntity
  8
0
370
    20
100
AcDbLine
 10
30.750000
 20
170.800000
 11
30.750000
 21
170.175000
  0
LINE
  5
446
100
AcDbEntity
  8
0
370
    20
100
AcDbLine
 10
30.750000
 20
169.225000
 11
30.750000
 21
168.575000
  0
LINE
  5
449
100
AcDbEntity
  8
0
370
    20
100
AcDbLine
 10
23.475000
 20
173.650000
 11
24.425000
 21
173.650000
  0
LINE
  5
44c
100
AcDbEntity
  8
0
370
    20
100
AcDbLine
 10
27.275000
 20
173.650000
 11
30.750000
 21
173.650000
  0
LINE
  5
44f
100
AcDbEntity
  8
0
370
    20
100
AcDbLine
 10
27.275000
 20
180.950000
 11
32.975000
 21
180.950000
  0
LINE
  5
452
100
AcDbEntity
  8
0
370
    20
100
AcDbLine
 10
27.275000
 20
201.900000
 11
30.750000
 21
201.900000
  0
LINE
  5
455
100
AcDbEntity
  8
0
370
    20
100
AcDbLine
 10
27.275000
 20
193.975000
 11
32.975000
 21
193.975000
  0
LINE
  5
458
100
AcDbEntity
  8
0
370
    20
100
AcDbLine
 10
30.750000
 20
201.900000
 11
30.750000
 21
194.275000
  0
LINE
  5
45b
100
AcDbEntity
  8
0
370
    20
100
AcDbLine
 10
30.750000
 20
180.650000
 11
30.750000
 21
173.025000
  0
LINE
  5
45e
100
AcDbEntity
  8
0
370
    20
100
AcDbLine
 10
21.250000
 20
193.975000
 11
21.875000
 21
194.275000
  0
LINE
  5
461
100
AcDbEntity
  8
0
370
    20
100
AcDbLine
 10
32.025000
 20
194.275000
 11
32.975000
 21
193.975000
  0
LINE
  5
464
100
AcDbEntity
  8
0
370
    20
100
AcDbLine
 10
21.250000
 20
180.950000
 11
21.875000
 21
180.650000
  0
LINE
  5
467
100
AcDbEntity
  8
0
370
    20
100
AcDbLine
 10
32.025000
 20
180.650000
 11
32.975000
 21
180.950000
  0
LINE
  5
46a
100
AcDbEntity
  8
0
370
    20
100
AcDbLine
 10
21.875000
 20
194.275000
 11
23.475000
 21
194.275000
  0
LINE
  5
46d
100
AcDbEntity
  8
0
370
    20
100
AcDbLine
 10
27.275000
 20
194.275000
 11
32.025000
 21
194.275000
  0
LINE
  5
470
100
AcDbEntity
  8
0
370
    20
100
AcDbLine
 10
21.875000
 20
180.650000
 11
24.425000
 21
180.650000
  0
LINE
  5
473
100
AcDbEntity
  8
0
370
    20
100
AcDbLine
 10
27.275000
 20
180.650000
 11
32.025000
 21
180.650000
  0
LWPOLYLINE
  5
476
100
AcDbEntity
  8
0
100
AcDbPolyline
 90
    16
 70
     0
 43
0.200000
 10
24.425000
 20
188.250000
 10
24.425000
 20
187.625000
 10
23.475000
 20
187.625000
 10
23.475000
 20
186.975000
 10
24.425000
 20
186.975000
 10
24.425000
 20
186.350000
 10
23.475000
 20
186.350000
 10
23.475000
 20
185.400000
 10
24.425000
 20
185.400000
 10
24.425000
 20
184.775000
 10
23.475000
 20
184.775000
 10
23.475000
 20
184.125000
 10
24.425000
 20
184.125000
 10
24.425000
 20
183.175000
 10
23.475000
 20
183.175000
 10
23.475000
 20
182.850000
  0
LINE
  5
499
100
AcDbEntity
  8
0
370
    20
100
AcDbLine
 10
23.475000
 20
187.625000
 11
23.475000
 21
186.975000
  0
LINE
  5
49c
100
AcDbEntity
  8
0
370
    20
100
AcDbLine
 10
23.475000
 20
186.350000
 11
23.475000
 21
185.400000
  0
LINE
  5
49f
100
AcDbEntity
  8
0
370
    20
100
AcDbLine
 10
23.475000
 20
184.775000
 11
23.475000
 21
184.125000
  0
LINE
  5
4a2
100
AcDbEntity
  8
0
370
    20
100
AcDbLine
 10
23.475000
 20
183.175000
 11
23.475000
 21
182.550000
  0
LINE
  5
4a5
100
AcDbEntity
  8
0
370
    20
100
AcDbLine
 10
23.475000
 20
181.900000
 11
23.475000
 21
180.950000
  0
LWPOLYLINE
  5
4a8
100
AcDbEntity
  8
0
100
AcDbPolyline
 90
    16
 70
     0
 43
0.200000
 10
24.425000
 20
194.275000
 10
24.425000
 20
193.650000
 10
23.475000
 20
193.650000
 10
23.475000
 20
193.025000
 10
24.425000
 20
193.025000
 10
24.425000
 20
192.375000
 10
23.475000
 20
192.375000
 10
23.475000
 20
191.425000
 10
24.425000
 20
191.425000
 10
24.425000
 20
190.800000
 10
23.475000
 20
190.800000
 10
23.475000
 20
189.850000
 10
24.425000
 20
189.850000
 10
24.425000
 20
189.200000
 10
23.475000
 20
189.200000
 10
23.475000
 20
188.900000
  0
LINE
  5
4cb
100
AcDbEntity
  8
0
370
    20
100
AcDbLine
 10
23.475000
 20
193.650000
 11
23.475000
 21
193.025000
  0
LINE
  5
4ce
100
AcDbEntity
  8
0
370
    20
100
AcDbLine
 10
23.475000
 20
192.375000
 11
23.475000
 21
191.425000
  0
LINE
  5
4d1
100
AcDbEntity
  8
0
370
    20
100
AcDbLine
 10
23.475000
 20
190.800000
 11
23.475000
 21
189.850000
  0
LINE
  5
4d4
100
AcDbEntity
  8
0
370
    20
100
AcDbLine
 10
23.475000
 20
189.200000
 11
23.475000
 21
188.575000
  0
LINE
  5
4d7
100
AcDbEntity
  8
0
370
    20
100
AcDbLine
 10
23.475000
 20
189.200000
 11
23.475000
 21
188.250000
  0
LINE
  5
4da
100
AcDbEntity
  8
0
370
    20
100
AcDbLine
 10
24.425000
 20
188.250000
 11
23.475000
 21
188.250000
  0
LINE
  5
4dd
100
AcDbEntity
  8
0
370
    20
100
AcDbLine
 10
23.475000
 20
182.550000
 11
24.425000
 21
182.550000
  0
LINE
  5
4e0
100
AcDbEntity
  8
0
370
    20
100
AcDbLine
 10
24.425000
 20
182.550000
 11
24.425000
 21
181.900000
  0
LINE
  5
4e3
100
AcDbEntity
  8
0
370
    20
100
AcDbLine
 10
24.425000
 20
181.900000
 11
23.475000
 21
181.900000
  0
LINE
  5
4e6
100
AcDbEntity
  8
0
370
    20
100
AcDbLine
 10
23.475000
 20
181.900000
 11
23.475000
 21
180.950000
  0
LINE
  5
4e9
100
AcDbEntity
  8
0
370
    20
100
AcDbLine
 10
23.475000
 20
180.950000
 11
24.425000
 21
180.950000
  0
LINE
  5
4ec
100
AcDbEntity
  8
0
370
    20
100
AcDbLine
 10
24.425000
 20
180.950000
 11
24.425000
 21
180.650000
  0
LINE
  5
4ef
100
AcDbEntity
  8
0
370
    20
100
AcDbLine
 10
24.425000
 20
194.275000
 11
23.475000
 21
194.275000
  0
LINE
  5
4f2
100
AcDbEntity
  8
0
370
    20
100
AcDbLine
 10
25.375000
 20
187.300000
 11
23.475000
 21
187.300000
  0
LINE
  5
4f5
100
AcDbEntity
  8
0
370
    20
100
AcDbLine
 10
23.475000
 20
202.850000
 11
23.475000
 21
194.275000
  0
LINE
  5
4f8
100
AcDbEntity
  8
0
370
    20
100
AcDbLine
 10
23.475000
 20
193.650000
 11
23.475000
 21
193.025000
  0
LINE
  5
4fb
100
AcDbEntity
  8
0
370
    20
100
AcDbLine
 10
23.475000
 20
192.375000
 11
23.475000
 21
191.425000
  0
LINE
  5
4fe
100
AcDbEntity
  8
0
370
    20
100
AcDbLine
 10
23.475000
 20
190.800000
 11
23.475000
 21
189.850000
  0
LINE
  5
501
100
AcDbEntity
  8
0
370
    20
100
AcDbLine
 10
23.475000
 20
189.200000
 11
23.475000
 21
188.250000
  0
LINE
  5
504
100
AcDbEntity
  8
0
370
    20
100
AcDbLine
 10
23.475000
 20
187.625000
 11
23.475000
 21
186.975000
  0
LINE
  5
507
100
AcDbEntity
  8
0
370
    20
100
AcDbLine
 10
23.475000
 20
186.350000
 11
23.475000
 21
185.400000
  0
LINE
  5
50a
100
AcDbEntity
  8
0
370
    20
100
AcDbLine
 10
23.475000
 20
184.775000
 11
23.475000
 21
184.125000
  0
LINE
  5
50d
100
AcDbEntity
  8
0
370
    20
100
AcDbLine
 10
23.475000
 20
183.175000
 11
23.475000
 21
182.550000
  0
LINE
  5
510
100
AcDbEntity
  8
0
370
    20
100
AcDbLine
 10
23.475000
 20
181.900000
 11
23.475000
 21
180.950000
  0
LINE
  5
513
100
AcDbEntity
  8
0
370
    20
100
AcDbLine
 10
23.475000
 20
180.650000
 11
23.475000
 21
173.650000
  0
HATCH
  5
516
330
F6
100
AcDbEntity
  8
0
100
AcDbHatch
 10
0.0
 20
0.0
 30
0.0
210
0.0
220
0.0
230
1.0
  2
SOLID
 70
     1
 71
     0
 91
     1
 92
     7
 72
     0
 73
     1
 93
    34
 10
25.375000
 20
207.600000
 10
23.475000
 20
206.975000
 10
23.475000
 20
206.350000
 10
24.425000
 20
206.350000
 10
24.425000
 20
205.700000
 10
23.475000
 20
205.700000
 10
23.475000
 20
204.750000
 10
24.425000
 20
204.750000
 10
24.425000
 20
204.125000
 10
23.475000
 20
204.125000
 10
23.475000
 20
203.475000
 10
24.425000
 20
203.800000
 10
24.425000
 20
202.850000
 10
23.475000
 20
202.850000
 10
23.475000
 20
194.275000
 10
24.425000
 20
194.275000
 10
24.425000
 20
193.650000
 10
23.475000
 20
193.650000
 10
23.475000
 20
193.025000
 10
24.425000
 20
193.025000
 10
24.425000
 20
192.375000
 10
23.475000
 20
192.375000
 10
23.475000
 20
191.425000
 10
24.100000
 20
191.425000
 10
24.425000
 20
190.800000
 10
23.475000
 20
190.800000
 10
23.475000
 20
189.850000
 10
24.425000
 20
189.850000
 10
24.425000
 20
189.200000
 10
23.475000
 20
189.200000
 10
23.475000
 20
188.250000
 10
24.425000
 20
188.250000
 10
24.425000
 20
187.300000
 10
25.375000
 20
187.300000
 97
     1
330
519
 75
     0
 76
     1
 47
0.651316
 98
     1
 10
0.0
 20
0.0
  0
LWPOLYLINE
  5
519
330
F6
100
AcDbEntity
  8
0
100
AcDbPolyline
 90
    35
 70
     0
 43
0.200000
 10
25.375000
 20
207.600000
 10
23.475000
 20
206.975000
 10
23.475000
 20
206.350000
 10
24.425000
 20
206.350000
 10
24.425000
 20
205.700000
 10
23.475000
 20
205.700000
 10
23.475000
 20
204.750000
 10
24.425000
 20
204.750000
 10
24.425000
 20
204.125000
 10
23.475000
 20
204.125000
 10
23.475000
 20
203.475000
 10
24.425000
 20
203.800000
 10
24.425000
 20
202.850000
 10
23.475000
 20
202.850000
 10
23.475000
 20
194.275000
 10
24.425000
 20
194.275000
 10
24.425000
 20
193.650000
 10
23.475000
 20
193.650000
 10
23.475000
 20
193.025000
 10
24.425000
 20
193.025000
 10
24.425000
 20
192.375000
 10
23.475000
 20
192.375000
 10
23.475000
 20
191.425000
 10
24.100000
 20
191.425000
 10
24.425000
 20
190.800000
 10
23.475000
 20
190.800000
 10
23.475000
 20
189.850000
 10
24.425000
 20
189.850000
 10
24.425000
 20
189.200000
 10
23.475000
 20
189.200000
 10
23.475000
 20
188.250000
 10
24.425000
 20
188.250000
 10
24.425000
 20
187.300000
 10
25.375000
 20
187.300000
 10
25.375000
 20
207.600000
  0
HATCH
  5
562
330
F6
100
AcDbEntity
  8
0
100
AcDbHatch
 10
0.0
 20
0.0
 30
0.0
210
0.0
220
0.0
230
1.0
  2
SOLID
 70
     1
 71
     0
 91
     1
 92
     7
 72
     0
 73
     1
 93
    36
 10
25.375000
 20
187.300000
 10
23.475000
 20
186.350000
 10
23.475000
 20
185.400000
 10
24.425000
 20
185.725000
 10
24.425000
 20
184.775000
 10
23.475000
 20
184.775000
 10
23.475000
 20
184.125000
 10
24.425000
 20
184.125000
 10
24.425000
 20
183.175000
 10
23.475000
 20
183.175000
 10
23.475000
 20
182.550000
 10
24.425000
 20
182.850000
 10
24.425000
 20
181.900000
 10
23.475000
 20
181.900000
 10
23.475000
 20
181.275000
 10
24.100000
 20
180.950000
 10
24.425000
 20
180.650000
 10
23.475000
 20
180.650000
 10
23.475000
 20
173.650000
 10
24.425000
 20
173.650000
 10
24.425000
 20
173.025000
 10
23.475000
 20
173.025000
 10
23.775000
 20
172.075000
 10
24.425000
 20
172.075000
 10
24.425000
 20
171.450000
 10
23.475000
 20
171.450000
 10
23.475000
 20
170.800000
 10
24.425000
 20
170.800000
 10
24.425000
 20
170.175000
 10
23.475000
 20
170.175000
 10
23.475000
 20
169.525000
 10
24.100000
 20
169.525000
 10
24.425000
 20
168.575000
 10
23.475000
 20
168.900000
 10
23.475000
 20
168.275000
 10
25.375000
 20
168.275000
 97
     1
330
565
 75
     0
 76
     1
 47
0.651316
 98
     1
 10
0.0
 20
0.0
  0
LWPOLYLINE
  5
565
330
F6
100
AcDbEntity
  8
0
100
AcDbPolyline
 90
    37
 70
     0
 43
0.200000
 10
25.375000
 20
187.300000
 10
23.475000
 20
186.350000
 10
23.475000
 20
185.400000
 10
24.425000
 20
185.725000
 10
24.425000
 20
184.775000
 10
23.475000
 20
184.775000
 10
23.475000
 20
184.125000
 10
24.425000
 20
184.125000
 10
24.425000
 20
183.175000
 10
23.475000
 20
183.175000
 10
23.475000
 20
182.550000
 10
24.425000
 20
182.850000
 10
24.425000
 20
181.900000
 10
23.475000
 20
181.900000
 10
23.475000
 20
181.275000
 10
24.100000
 20
180.950000
 10
24.425000
 20
180.650000
 10
23.475000
 20
180.650000
 10
23.475000
 20
173.650000
 10
24.425000
 20
173.650000
 10
24.425000
 20
173.025000
 10
23.475000
 20
173.025000
 10
23.775000
 20
172.075000
 10
24.425000
 20
172.075000
 10
24.425000
 20
171.450000
 10
23.475000
 20
171.450000
 10
23.475000
 20
170.800000
 10
24.425000
 20
170.800000
 10
24.425000
 20
170.175000
 10
23.475000
 20
170.175000
 10
23.475000
 20
169.525000
 10
24.100000
 20
169.525000
 10
24.425000
 20
168.575000
 10
23.475000
 20
168.900000
 10
23.475000
 20
168.275000
 10
25.375000
 20
168.275000
 10
25.375000
 20
187.300000
  0
HATCH
  5
5b2
330
F6
100
AcDbEntity
  8
0
100
AcDbHatch
 10
0.0
 20
0.0
 30
0.0
210
0.0
220
0.0
230
1.0
  2
SOLID
 70
     1
 71
     0
 91
     1
 92
     7
 72
     0
 73
     1
 93
    40
 10
21.875000
 20
194.275000
 10
24.100000
 20
194.275000
 10
24.100000
 20
193.650000
 10
23.475000
 20
193.650000
 10
23.475000
 20
193.025000
 10
24.100000
 20
193.025000
 10
24.425000
 20
192.375000
 10
23.475000
 20
192.375000
 10
23.475000
 20
191.425000
 10
24.100000
 20
191.425000
 10
24.100000
 20
190.800000
 10
23.475000
 20
190.800000
 10
23.475000
 20
189.850000
 10
24.100000
 20
189.850000
 10
24.100000
 20
189.200000
 10
23.475000
 20
189.200000
 10
23.475000
 20
188.250000
 10
24.425000
 20
188.250000
 10
24.425000
 20
187.625000
 10
23.775000
 20
187.925000
 10
23.475000
 20
186.975000
 10
24.100000
 20
186.975000
 10
24.100000
 20
186.350000
 10
23.150000
 20
186.350000
 10
23.150000
 20
185.400000
 10
24.425000
 20
185.400000
 10
24.425000
 20
184.775000
 10
23.475000
 20
185.075000
 10
23.475000
 20
184.125000
 10
24.100000
 20
184.125000
 10
24.100000
 20
183.500000
 10
23.150000
 20
183.500000
 10
23.150000
 20
182.550000
 10
24.100000
 20
182.550000
 10
24.100000
 20
182.225000
 10
23.475000
 20
182.225000
 10
23.475000
 20
180.650000
 10
22.200000
 20
180.650000
 10
21.250000
 20
180.950000
 10
21.250000
 20
192.700000
 97
     1
330
5b5
 75
     0
 76
     1
 47
0.651316
 98
     1
 10
0.0
 20
0.0
  0
LWPOLYLINE
  5
5b5
330
F6
100
AcDbEntity
  8
0
100
AcDbPolyline
 90
    41
 70
     0
 43
0.200000
 10
21.875000
 20
194.275000
 10
24.100000
 20
194.275000
 10
24.100000
 20
193.650000
 10
23.475000
 20
193.650000
 10
23.475000
 20
193.025000
 10
24.100000
 20
193.025000
 10
24.425000
 20
192.375000
 10
23.475000
 20
192.375000
 10
23.475000
 20
191.425000
 10
24.100000
 20
191.425000
 10
24.100000
 20
190.800000
 10
23.475000
 20
190.800000
 10
23.475000
 20
189.850000
 10
24.100000
 20
189.850000
 10
24.100000
 20
189.200000
 10
23.475000
 20
189.200000
 10
23.475000
 20
188.250000
 10
24.425000
 20
188.250000
 10
24.425000
 20
187.625000
 10
23.775000
 20
187.925000
 10
23.475000
 20
186.975000
 10
24.100000
 20
186.975000
 10
24.100000
 20
186.350000
 10
23.150000
 20
186.350000
 10
23.150000
 20
185.400000
 10
24.425000
 20
185.400000
 10
24.425000
 20
184.775000
 10
23.475000
 20
185.075000
 10
23.475000
 20
184.125000
 10
24.100000
 20
184.125000
 10
24.100000
 20
183.500000
 10
23.150000
 20
183.500000
 10
23.150000
 20
182.550000
 10
24.100000
 20
182.550000
 10
24.100000
 20
182.225000
 10
23.475000
 20
182.225000
 10
23.475000
 20
180.650000
 10
22.200000
 20
180.650000
 10
21.250000
 20
180.950000
 10
21.250000
 20
192.700000
 10
21.875000
 20
194.275000
  0
LINE
  5
60a
100
AcDbEntity
  8
0
370
    20
100
AcDbLine
 10
20.600000
 20
194.275000
 11
13.300000
 21
194.275000
  0
LINE
  5
60d
100
AcDbEntity
  8
0
370
    20
100
AcDbLine
 10
20.600000
 20
180.650000
 11
13.000000
 21
180.650000
  0
LINE
  5
610
100
AcDbEntity
  8
0
370
    20
100
AcDbLine
 10
21.250000
 20
180.000000
 11
21.250000
 21
160.975000
  0
LINE
  5
613
100
AcDbEntity
  8
0
370
    20
100
AcDbLine
 10
32.975000
 20
180.325000
 11
32.975000
 21
160.650000
  0
MTEXT
  5
616
100
AcDbEntity
  8
0
100
AcDbMText
 10
25.225000
 20
164.575000
 40
2.475000
 41
6.682500
 71
     1
 72
     5
  1
\fＭＳ ゴシック|b0|i0|c128|p49;\T0.9100;7.5
 44
0.987879
 73
     1
  7
BIGFONT
  0
MTEXT
  5
619
100
AcDbEntity
  8
0
100
AcDbMText
 10
40.700000
 20
201.400000
 40
1.856250
 41
40.095000
 71
     1
 72
     5
  1
\f@ＭＳ ゴシック|b0|i0|c128|p49;\T1.8854;ロッドカップリング
 44
1.226497
 73
     1
 11
-0.000000000000000
 21
-1.000000
 31
0.000000
  7
BIGFONT
  0
MTEXT
  5
61c
100
AcDbEntity
  8
0
100
AcDbMText
 10
20.400000
 20
205.225000
 40
1.856250
 41
13.365000
 71
     1
 72
     5
  1
\f@ＭＳ ゴシック|b0|i0|c128|p49;\T1.8854;角ねじ
 44
1.226497
 73
     1
 11
-0.000000000000000
 21
-1.000000
 31
0.000000
  7
BIGFONT
  0
LWPOLYLINE
  5
61f
100
AcDbEntity
  8
0
100
AcDbPolyline
 90
     3
 70
     0
 43
0.200000
 10
16.800000
 20
190.800000
 10
16.800000
 20
194.275000
 10
16.175000
 20
192.050000
  0
LWPOLYLINE
  5
628
100
AcDbEntity
  8
0
100
AcDbPolyline
 90
     3
 70
     0
 43
0.200000
 10
16.800000
 20
184.450000
 10
16.800000
 20
180.950000
 10
16.175000
 20
183.175000
  0
LWPOLYLINE
  5
631
100
AcDbEntity
  8
0
100
AcDbPolyline
 90
     3
 70
     0
 43
0.200000
 10
24.100000
 20
162.875000
 10
21.250000
 20
162.875000
 10
23.150000
 20
163.500000
  0
LWPOLYLINE
  5
63a
100
AcDbEntity
  8
0
100
AcDbPolyline
 90
     3
 70
     0
 43
0.200000
 10
29.800000
 20
162.875000
 10
32.675000
 20
162.875000
 10
30.750000
 20
163.500000
  0
LWPOLYLINE
  5
643
100
AcDbEntity
  8
0
100
AcDbPolyline
 90
     3
 70
     0
 43
0.200000
 10
18.075000
 20
178.725000
 10
22.200000
 20
186.025000
 10
20.300000
 20
183.825000
  0
LWPOLYLINE
  5
64c
100
AcDbEntity
  8
0
100
AcDbPolyline
 90
     3
 70
     0
 43
0.200000
 10
20.925000
 20
196.825000
 10
23.775000
 20
193.650000
 10
21.550000
 20
194.925000
  0
MTEXT
  5
655
100
AcDbEntity
  8
0
100
AcDbMText
 10
19.500000
 20
157.275000
 40
1.856250
 41
24.502500
 71
     1
 72
     5
  1
\fＭＳ ゴシック|b0|i0|c128|p49;\T1.8854;（単位 cm）
 44
1.226497
 73
     1
  7
BIGFONT
  0
LWPOLYLINE
  5
658
100
AcDbEntity
  8
0
100
AcDbPolyline
 90
     3
 70
     0
 43
0.200000
 10
37.425000
 20
196.500000
 10
28.850000
 20
196.500000
 10
32.975000
 20
197.150000
  0
LWPOLYLINE
  5
661
100
AcDbEntity
  8
0
100
AcDbPolyline
 90
     3
 70
     0
 43
0.200000
 10
37.425000
 20
176.525000
 10
28.850000
 20
176.525000
 10
32.975000
 20
177.150000
  0
MTEXT
  5
66a
100
AcDbEntity
  8
0
100
AcDbMText
 10
19.750000
 20
178.575000
 40
1.856250
 41
22.275000
 71
     1
 72
     5
  1
\f@ＭＳ ゴシック|b0|i0|c128|p49;\T1.8854;ノッキング
 44
1.226497
 73
     1
 11
-0.000000000000000
 21
-1.000000
 31
0.000000
  7
BIGFONT
  0
MTEXT
  5
66d
100
AcDbEntity
  8
0
100
AcDbMText
 10
16.275000
 20
171.575000
 40
1.856250
 41
13.365000
 71
     1
 72
     5
  1
\f@ＭＳ ゴシック|b0|i0|c128|p49;\T1.8854;ヘッド
 44
1.226497
 73
     1
 11
-0.000000000000000
 21
-1.000000
 31
0.000000
  7
BIGFONT
  0
MTEXT
  5
670
100
AcDbEntity
  8
0
100
AcDbMText
 10
10.000000
 20
149.325000
 40
1.856250
 41
49.005000
 71
     1
 72
     5
  1
\fＭＳ ゴシック|b0|i0|c128|p49;\T1.8854;（ｂ）ノッキングヘッド
 44
1.226497
 73
     1
  7
BIGFONT
  0
LWPOLYLINE
  5
673
100
AcDbEntity
  8
0
100
AcDbPolyline
 90
     4
 70
     1
 43
0.200000
 10
61.525000
 20
189.850000
 10
61.525000
 20
186.675000
 10
60.575000
 20
186.675000
 10
60.575000
 20
189.850000
  0
LWPOLYLINE
  5
67e
100
AcDbEntity
  8
0
100
AcDbPolyline
 90
     4
 70
     1
 43
0.200000
 10
60.575000
 20
188.900000
 10
60.575000
 20
187.625000
 10
65.350000
 20
187.625000
 10
65.350000
 20
188.900000
  0
LWPOLYLINE
  5
689
100
AcDbEntity
  8
0
100
AcDbPolyline
 90
     4
 70
     1
 43
0.200000
 10
61.525000
 20
182.550000
 10
61.525000
 20
179.700000
 10
60.575000
 20
179.700000
 10
60.575000
 20
182.550000
  0
LWPOLYLINE
  5
694
100
AcDbEntity
  8
0
100
AcDbPolyline
 90
     4
 70
     1
 43
0.200000
 10
60.575000
 20
181.600000
 10
60.575000
 20
180.650000
 10
65.025000
 20
180.650000
 10
65.025000
 20
181.600000
  0
LINE
  5
69f
100
AcDbEntity
  8
0
  6
DASHED
 62
     7
370
    20
100
AcDbLine
 10
76.750000
 20
162.250000
 11
76.750000
 21
191.100000
  0
LWPOLYLINE
  5
6a2
100
AcDbEntity
  8
0
100
AcDbPolyline
 90
     4
 70
     1
 43
0.200000
 10
86.925000
 20
189.850000
 10
86.925000
 20
186.675000
 10
87.875000
 20
186.675000
 10
87.875000
 20
189.850000
  0
LWPOLYLINE
  5
6ad
100
AcDbEntity
  8
0
100
AcDbPolyline
 90
     4
 70
     1
 43
0.200000
 10
86.925000
 20
182.550000
 10
86.925000
 20
179.700000
 10
87.875000
 20
179.700000
 10
87.875000
 20
182.550000
  0
LINE
  5
6b8
100
AcDbEntity
  8
0
370
    20
100
AcDbLine
 10
62.475000
 20
178.725000
 11
61.525000
 21
178.725000
  0
LINE
  5
6bb
100
AcDbEntity
  8
0
370
    20
100
AcDbLine
 10
61.525000
 20
194.275000
 11
62.475000
 21
194.275000
  0
LINE
  5
6be
100
AcDbEntity
  8
0
370
    20
100
AcDbLine
 10
85.950000
 20
194.275000
 11
85.950000
 21
178.725000
  0
LINE
  5
6c1
100
AcDbEntity
  8
0
370
    20
100
AcDbLine
 10
85.950000
 20
178.725000
 11
86.925000
 21
178.725000
  0
LINE
  5
6c4
100
AcDbEntity
  8
0
370
    20
100
AcDbLine
 10
86.925000
 20
178.725000
 11
86.925000
 21
194.275000
  0
LINE
  5
6c7
100
AcDbEntity
  8
0
370
    20
100
AcDbLine
 10
86.925000
 20
194.275000
 11
85.950000
 21
194.275000
  0
LINE
  5
6ca
100
AcDbEntity
  8
0
370
    20
100
AcDbLine
 10
62.475000
 20
187.625000
 11
62.475000
 21
181.600000
  0
LINE
  5
6cd
100
AcDbEntity
  8
0
370
    20
100
AcDbLine
 10
62.475000
 20
180.650000
 11
62.475000
 21
178.725000
  0
LINE
  5
6d0
100
AcDbEntity
  8
0
370
    20
100
AcDbLine
 10
87.875000
 20
189.200000
 11
87.875000
 21
187.625000
  0
LINE
  5
6d3
100
AcDbEntity
  8
0
370
    20
100
AcDbLine
 10
86.925000
 20
189.200000
 11
87.875000
 21
189.200000
  0
LINE
  5
6d6
100
AcDbEntity
  8
0
370
    20
100
AcDbLine
 10
87.875000
 20
181.900000
 11
87.875000
 21
180.650000
  0
LINE
  5
6d9
100
AcDbEntity
  8
0
370
    20
100
AcDbLine
 10
86.925000
 20
187.625000
 11
87.875000
 21
187.625000
  0
LINE
  5
6dc
100
AcDbEntity
  8
0
370
    20
100
AcDbLine
 10
86.925000
 20
181.900000
 11
87.875000
 21
181.900000
  0
LINE
  5
6df
100
AcDbEntity
  8
0
370
    20
100
AcDbLine
 10
86.925000
 20
180.650000
 11
87.875000
 21
180.650000
  0
LINE
  5
6e2
100
AcDbEntity
  8
0
370
    20
100
AcDbLine
 10
62.475000
 20
162.250000
 11
85.950000
 21
162.250000
  0
LINE
  5
6e5
100
AcDbEntity
  8
0
370
    20
100
AcDbLine
 10
85.950000
 20
162.250000
 11
85.950000
 21
191.100000
  0
LINE
  5
6e8
100
AcDbEntity
  8
0
370
    20
100
AcDbLine
 10
85.950000
 20
191.100000
 11
62.475000
 21
191.100000
  0
LINE
  5
6eb
100
AcDbEntity
  8
0
370
    20
100
AcDbLine
 10
62.475000
 20
191.100000
 11
62.475000
 21
188.900000
  0
LINE
  5
6ee
100
AcDbEntity
  8
0
370
    20
100
AcDbLine
 10
62.475000
 20
187.625000
 11
62.475000
 21
181.600000
  0
LINE
  5
6f1
100
AcDbEntity
  8
0
370
    20
100
AcDbLine
 10
62.475000
 20
180.650000
 11
62.475000
 21
162.250000
  0
LINE
  5
6f4
100
AcDbEntity
  8
0
370
    20
100
AcDbLine
 10
61.525000
 20
193.400000
 11
61.525000
 21
178.725000
  0
LINE
  5
6f7
100
AcDbEntity
  8
0
370
    20
100
AcDbLine
 10
61.525000
 20
193.325000
 11
61.525000
 21
194.275000
  0
LINE
  5
6fa
100
AcDbEntity
  8
0
370
    20
100
AcDbLine
 10
62.475000
 20
194.275000
 11
62.475000
 21
193.325000
  0
LINE
  5
6fd
100
AcDbEntity
  8
0
370
    20
100
AcDbLine
 10
62.475000
 20
193.400000
 11
62.475000
 21
188.900000
  0
HATCH
  5
700
330
F6
100
AcDbEntity
  8
0
100
AcDbHatch
 10
0.0
 20
0.0
 30
0.0
210
0.0
220
0.0
230
1.0
  2
SOLID
 70
     1
 71
     0
 91
     1
 92
     7
 72
     0
 73
     1
 93
    12
 10
62.475000
 20
191.100000
 10
71.675000
 20
191.100000
 10
71.675000
 20
162.250000
 10
62.475000
 20
162.250000
 10
62.475000
 20
180.650000
 10
65.025000
 20
180.650000
 10
65.025000
 20
181.600000
 10
62.475000
 20
181.600000
 10
62.475000
 20
187.625000
 10
65.350000
 20
187.625000
 10
65.350000
 20
188.900000
 10
62.475000
 20
188.900000
 97
     1
330
703
 75
     0
 76
     1
 47
0.651316
 98
     1
 10
0.0
 20
0.0
  0
LWPOLYLINE
  5
703
330
F6
100
AcDbEntity
  8
0
100
AcDbPolyline
 90
    12
 70
     1
 43
0.200000
 10
62.475000
 20
191.100000
 10
71.675000
 20
191.100000
 10
71.675000
 20
162.250000
 10
62.475000
 20
162.250000
 10
62.475000
 20
180.650000
 10
65.025000
 20
180.650000
 10
65.025000
 20
181.600000
 10
62.475000
 20
181.600000
 10
62.475000
 20
187.625000
 10
65.350000
 20
187.625000
 10
65.350000
 20
188.900000
 10
62.475000
 20
188.900000
  0
LINE
  5
71e
100
AcDbEntity
  8
0
370
    20
100
AcDbLine
 10
71.675000
 20
161.925000
 11
71.675000
 21
157.800000
  0
LINE
  5
721
100
AcDbEntity
  8
0
370
    20
100
AcDbLine
 10
62.475000
 20
161.925000
 11
62.475000
 21
154.000000
  0
LINE
  5
724
100
AcDbEntity
  8
0
370
    20
100
AcDbLine
 10
76.750000
 20
161.925000
 11
76.750000
 21
157.800000
  0
LINE
  5
727
100
AcDbEntity
  8
0
370
    20
100
AcDbLine
 10
85.950000
 20
161.925000
 11
85.950000
 21
154.000000
  0
LINE
  5
72a
100
AcDbEntity
  8
0
370
    20
100
AcDbLine
 10
71.375000
 20
159.375000
 11
76.750000
 21
159.375000
  0
LINE
  5
72d
100
AcDbEntity
  8
0
370
    20
100
AcDbLine
 10
62.475000
 20
156.200000
 11
85.950000
 21
156.200000
  0
MTEXT
  5
730
100
AcDbEntity
  8
0
100
AcDbMText
 10
78.200000
 20
160.750000
 40
2.475000
 41
6.682500
 71
     1
 72
     5
  1
\fＭＳ ゴシック|b0|i0|c128|p49;\T0.9100;4.4
 44
0.987879
 73
     1
  7
BIGFONT
  0
MTEXT
  5
733
100
AcDbEntity
  8
0
100
AcDbMText
 10
71.550000
 20
155.375000
 40
2.475000
 41
8.910000
 71
     1
 72
     5
  1
\fＭＳ ゴシック|b0|i0|c128|p49;\T0.9100;20.0
 44
0.987879
 73
     1
  7
BIGFONT
  0
CIRCLE
  5
736
100
AcDbEntity
  8
0
370
    60
100
AcDbCircle
 10
62.100000
 20
195.000000
 40
1.575000
  0
CIRCLE
  5
739
100
AcDbEntity
  8
0
370
    60
100
AcDbCircle
 10
74.225000
 20
212.050000
 40
1.575000
  0
ELLIPSE
  5
73c
100
AcDbEntity
  8
0
370
    60
100
AcDbEllipse
 10
71.375000
 20
207.925000
 30
0.000000
 11
0.969667
 21
1.241117
 31
0.000000
210
0.000000
220
0.000000
230
1.000000
 40
0.603175
 41
0.000000
 42
6.283185
  0
ELLIPSE
  5
73f
100
AcDbEntity
  8
0
370
    60
100
AcDbEllipse
 10
68.525000
 20
203.800000
 30
0.000000
 11
0.969667
 21
1.241117
 31
0.000000
210
0.000000
220
0.000000
230
1.000000
 40
0.603175
 41
0.000000
 42
6.283185
  0
ELLIPSE
  5
742
100
AcDbEntity
  8
0
370
    60
100
AcDbEllipse
 10
65.350000
 20
199.350000
 30
0.000000
 11
0.969667
 21
1.241117
 31
0.000000
210
0.000000
220
0.000000
230
1.000000
 40
0.603175
 41
0.000000
 42
6.283185
  0
LINE
  5
745
100
AcDbEntity
  8
0
370
    60
100
AcDbLine
 10
73.600000
 20
211.100000
 11
72.000000
 21
208.550000
  0
LINE
  5
748
100
AcDbEntity
  8
0
370
    60
100
AcDbLine
 10
70.725000
 20
207.300000
 11
69.150000
 21
204.425000
  0
LINE
  5
74b
100
AcDbEntity
  8
0
370
    60
100
AcDbLine
 10
67.875000
 20
203.175000
 11
65.975000
 21
200.000000
  0
LINE
  5
74e
100
AcDbEntity
  8
0
370
    60
100
AcDbLine
 10
65.025000
 20
199.050000
 11
62.800000
 21
195.875000
  0
CIRCLE
  5
751
100
AcDbEntity
  8
0
370
    60
100
AcDbCircle
 10
86.350000
 20
195.000000
 40
1.575000
  0
ELLIPSE
  5
754
100
AcDbEntity
  8
0
370
    60
100
AcDbEllipse
 10
77.075000
 20
207.925000
 30
0.000000
 11
0.969667
 21
-1.241117
 31
0.000000
210
0.000000
220
0.000000
230
1.000000
 40
0.603175
 41
0.000000
 42
6.283185
  0
ELLIPSE
  5
757
100
AcDbEntity
  8
0
370
    60
100
AcDbEllipse
 10
79.925000
 20
203.800000
 30
0.000000
 11
0.969667
 21
-1.241117
 31
0.000000
210
0.000000
220
0.000000
230
1.000000
 40
0.603175
 41
0.000000
 42
6.283185
  0
ELLIPSE
  5
75a
100
AcDbEntity
  8
0
370
    60
100
AcDbEllipse
 10
83.100000
 20
199.350000
 30
0.000000
 11
0.969667
 21
-1.241117
 31
0.000000
210
0.000000
220
0.000000
230
1.000000
 40
0.603175
 41
0.000000
 42
6.283185
  0
LINE
  5
75d
100
AcDbEntity
  8
0
370
    60
100
AcDbLine
 10
74.850000
 20
211.100000
 11
76.450000
 21
208.550000
  0
LINE
  5
760
100
AcDbEntity
  8
0
370
    60
100
AcDbLine
 10
77.725000
 20
207.300000
 11
79.300000
 21
204.425000
  0
LINE
  5
763
100
AcDbEntity
  8
0
370
    60
100
AcDbLine
 10
80.575000
 20
203.175000
 11
82.475000
 21
200.000000
  0
LINE
  5
766
100
AcDbEntity
  8
0
370
    60
100
AcDbLine
 10
83.425000
 20
199.050000
 11
85.650000
 21
195.875000
  0
MTEXT
  5
769
100
AcDbEntity
  8
0
100
AcDbMText
 10
85.825000
 20
207.700000
 40
1.856250
 41
8.910000
 71
     1
 72
     5
  1
\fＭＳ ゴシック|b0|i0|c128|p49;\T1.8854;鉄鎖
 44
1.226497
 73
     1
  7
BIGFONT
  0
MTEXT
  5
76c
100
AcDbEntity
  8
0
100
AcDbMText
 10
90.575000
 20
174.400000
 40
1.856250
 41
17.820000
 71
     1
 72
     5
  1
\fＭＳ ゴシック|b0|i0|c128|p49;\T1.8854;ハンマー
 44
1.226497
 73
     1
  7
BIGFONT
  0
MTEXT
  5
76f
100
AcDbEntity
  8
0
100
AcDbMText
 10
89.625000
 20
158.225000
 40
1.856250
 41
24.502500
 71
     1
 72
     5
  1
\fＭＳ ゴシック|b0|i0|c128|p49;\T1.8854;（単位 cm）
 44
1.226497
 73
     1
  7
BIGFONT
  0
MTEXT
  5
772
100
AcDbEntity
  8
0
100
AcDbMText
 10
57.500000
 20
191.900000
 40
1.856250
 41
31.185000
 71
     1
 72
     5
  1
\f@ＭＳ ゴシック|b0|i0|c128|p49;\T1.8854;平板締付ボルト
 44
1.226497
 73
     1
 11
-0.000000000000000
 21
-1.000000
 31
0.000000
  7
BIGFONT
  0
LWPOLYLINE
  5
775
100
AcDbEntity
  8
0
100
AcDbPolyline
 90
     3
 70
     0
 43
0.200000
 10
58.050000
 20
191.750000
 10
60.575000
 20
188.900000
 10
58.675000
 20
189.850000
  0
LWPOLYLINE
  5
77e
100
AcDbEntity
  8
0
100
AcDbPolyline
 90
     3
 70
     0
 43
0.200000
 10
88.825000
 20
172.700000
 10
81.525000
 20
172.700000
 10
84.700000
 20
173.350000
  0
LWPOLYLINE
  5
787
100
AcDbEntity
  8
0
100
AcDbPolyline
 90
     3
 70
     0
 43
0.200000
 10
84.375000
 20
205.375000
 10
80.875000
 20
204.125000
 10
82.475000
 20
205.375000
  0
LINE
  5
790
100
AcDbEntity
  8
0
370
    20
100
AcDbLine
 10
71.375000
 20
159.375000
 11
73.275000
 21
159.700000
  0
LINE
  5
793
100
AcDbEntity
  8
0
370
    20
100
AcDbLine
 10
76.750000
 20
159.375000
 11
75.175000
 21
159.700000
  0
LINE
  5
796
100
AcDbEntity
  8
0
370
    20
100
AcDbLine
 10
62.475000
 20
156.200000
 11
64.400000
 21
156.525000
  0
LINE
  5
799
100
AcDbEntity
  8
0
370
    20
100
AcDbLine
 10
85.950000
 20
156.200000
 11
84.700000
 21
156.525000
  0
MTEXT
  5
79c
100
AcDbEntity
  8
0
100
AcDbMText
 10
64.125000
 20
149.700000
 40
1.856250
 41
31.185000
 71
     1
 72
     5
  1
\fＭＳ ゴシック|b0|i0|c128|p49;\T1.8854;（ｃ）ハンマー
 44
1.226497
 73
     1
  7
BIGFONT
  0
CIRCLE
  5
79f
100
AcDbEntity
  8
0
370
    20
100
AcDbCircle
 10
143.075000
 20
191.425000
 40
0.950000
  0
ARC
  5
7a2
100
AcDbEntity
  8
0
370
    20
100
AcDbCircle
 10
118.950000
 20
193.025000
 40
2.525000
100
AcDbArc
 50
13.000000
 51
173.000000
  0
ARC
  5
7a5
100
AcDbEntity
  8
0
370
    20
100
AcDbCircle
 10
126.250000
 20
38.200000
 40
155.750000
100
AcDbArc
 50
85.000000
 51
92.000000
  0
LWPOLYLINE
  5
7a8
100
AcDbEntity
  8
0
100
AcDbPolyline
 90
     3
 70
     0
 43
0.200000
 10
112.600000
 20
193.325000
 10
115.150000
 20
193.650000
 10
116.425000
 20
193.650000
  0
LWPOLYLINE
  5
7b1
100
AcDbEntity
  8
0
100
AcDbPolyline
 90
     4
 70
     0
 43
0.200000
 10
113.575000
 20
189.525000
 10
111.350000
 20
188.900000
 10
112.600000
 20
186.025000
 10
114.825000
 20
184.125000
  0
LWPOLYLINE
  5
7bc
100
AcDbEntity
  8
0
100
AcDbPolyline
 90
     3
 70
     0
 43
0.200000
 10
139.900000
 20
193.325000
 10
141.175000
 20
193.325000
 10
141.475000
 20
193.325000
  0
ARC
  5
7c5
100
AcDbEntity
  8
0
370
    20
100
AcDbCircle
 10
112.925000
 20
188.575000
 40
4.750000
100
AcDbArc
 50
94.000000
 51
294.000000
  0
ARC
  5
7c8
100
AcDbEntity
  8
0
370
    20
100
AcDbCircle
 10
143.075000
 20
191.425000
 40
2.525000
100
AcDbArc
 50
206.000000
 51
146.000000
  0
ARC
  5
7cb
100
AcDbEntity
  8
0
370
    20
100
AcDbCircle
 10
128.800000
 20
92.450000
 40
98.325000
100
AcDbArc
 50
83.000000
 51
99.000000
  0
MTEXT
  5
7ce
100
AcDbEntity
  8
0
100
AcDbMText
 10
115.950000
 20
188.350000
 40
2.475000
 41
6.682500
 71
     1
 72
     5
  1
\fＭＳ ゴシック|b0|i0|c128|p49;\T0.9100;r=7
 44
0.987879
 73
     1
  7
BIGFONT
  0
MTEXT
  5
7d1
100
AcDbEntity
  8
0
100
AcDbMText
 10
113.425000
 20
181.050000
 40
2.475000
 41
2.227500
 71
     1
 72
     5
  1
\fＭＳ ゴシック|b0|i0|c128|p49;\T0.9100;9
 44
0.987879
 73
     1
  7
BIGFONT
  0
MTEXT
  5
7d4
100
AcDbEntity
  8
0
100
AcDbMText
 10
129.925000
 20
181.375000
 40
2.475000
 41
4.455000
 71
     1
 72
     5
  1
\fＭＳ ゴシック|b0|i0|c128|p49;\T0.9100;20
 44
0.987879
 73
     1
  7
BIGFONT
  0
MTEXT
  5
7d7
100
AcDbEntity
  8
0
100
AcDbMText
 10
150.525000
 20
181.375000
 40
2.475000
 41
2.227500
 71
     1
 72
     5
  1
\fＭＳ ゴシック|b0|i0|c128|p49;\T0.9100;2
 44
0.987879
 73
     1
  7
BIGFONT
  0
MTEXT
  5
7da
100
AcDbEntity
  8
0
100
AcDbMText
 10
131.175000
 20
175.025000
 40
1.856250
 41
24.502500
 71
     1
 72
     5
  1
\fＭＳ ゴシック|b0|i0|c128|p49;\T1.8854;（単位 cm）
 44
1.226497
 73
     1
  7
BIGFONT
  0
CIRCLE
  5
7dd
100
AcDbEntity
  8
0
370
    20
100
AcDbCircle
 10
118.950000
 20
193.325000
 40
0.950000
  0
LINE
  5
7e0
100
AcDbEntity
  8
0
370
    20
100
AcDbLine
 10
117.375000
 20
193.325000
 11
120.550000
 21
193.325000
  0
LINE
  5
7e3
100
AcDbEntity
  8
0
370
    20
100
AcDbLine
 10
140.850000
 20
191.425000
 11
144.975000
 21
191.425000
  0
LINE
  5
7e6
100
AcDbEntity
  8
0
370
    20
100
AcDbLine
 10
108.175000
 20
179.700000
 11
110.700000
 21
180.325000
  0
LINE
  5
7e9
100
AcDbEntity
  8
0
370
    20
100
AcDbLine
 10
118.950000
 20
179.700000
 11
116.725000
 21
180.325000
  0
LINE
  5
7ec
100
AcDbEntity
  8
0
370
    20
100
AcDbLine
 10
118.950000
 20
179.700000
 11
121.500000
 21
180.325000
  0
LINE
  5
7ef
100
AcDbEntity
  8
0
370
    20
100
AcDbLine
 10
143.375000
 20
179.700000
 11
141.175000
 21
180.325000
  0
LINE
  5
7f2
100
AcDbEntity
  8
0
370
    20
100
AcDbLine
 10
145.600000
 20
179.700000
 11
148.150000
 21
180.325000
  0
LINE
  5
7f5
100
AcDbEntity
  8
0
370
    20
100
AcDbLine
 10
118.950000
 20
196.500000
 11
118.950000
 21
188.575000
  0
LINE
  5
7f8
100
AcDbEntity
  8
0
370
    20
100
AcDbLine
 10
108.175000
 20
179.700000
 11
111.975000
 21
179.700000
  0
LINE
  5
7fb
100
AcDbEntity
  8
0
370
    20
100
AcDbLine
 10
115.475000
 20
179.700000
 11
128.475000
 21
179.700000
  0
LINE
  5
7fe
100
AcDbEntity
  8
0
370
    20
100
AcDbLine
 10
133.875000
 20
179.700000
 11
149.100000
 21
179.700000
  0
LINE
  5
801
100
AcDbEntity
  8
0
370
    20
100
AcDbLine
 10
108.175000
 20
186.675000
 11
108.175000
 21
176.825000
  0
LINE
  5
804
100
AcDbEntity
  8
0
370
    20
100
AcDbLine
 10
143.075000
 20
194.925000
 11
143.075000
 21
176.825000
  0
LINE
  5
807
100
AcDbEntity
  8
0
370
    20
100
AcDbLine
 10
145.600000
 20
190.150000
 11
145.600000
 21
176.825000
  0
LINE
  5
80a
100
AcDbEntity
  8
0
370
    20
100
AcDbLine
 10
118.950000
 20
185.075000
 11
118.950000
 21
176.825000
  0
MTEXT
  5
80d
100
AcDbEntity
  8
0
100
AcDbMText
 10
116.275000
 20
167.100000
 40
1.856250
 41
26.730000
 71
     1
 72
     5
  1
\fＭＳ ゴシック|b0|i0|c128|p49;\T1.8854;（ｄ）とんび
 44
1.226497
 73
     1
  7
BIGFONT
  0
MTEXT
  5
810
100
AcDbEntity
  8
0
100
AcDbMText
 10
100.950000
 20
151.425000
 40
2.381250
 41
102.870000
 71
     1
 72
     5
  1
\fＭＳ 明朝|b0|i0|c128|p17;\T1.0200;※全地連ボーリングハンドブックによる
 44
1.034881
 73
     1
  7
BIGFONT
  0
MTEXT
  5
813
100
AcDbEntity
  8
0
100
AcDbMText
 10
15.875000
 20
246.500000
 40
2.475000
 41
4.455000
 71
     1
 72
     5
  1
\fＭＳ ゴシック|b0|i0|c128|p49;\T0.9100;51
 44
0.981818
 73
     1
 11
0.0000000000000000
 21
1.000000
 31
0.000000
  7
BIGFONT
  0
MTEXT
  5
816
100
AcDbEntity
  8
0
100
AcDbMText
 10
15.475000
 20
184.975000
 40
2.475000
 41
6.682500
 71
     1
 72
     5
  1
\fＭＳ ゴシック|b0|i0|c128|p49;\T0.9100;6.0
 44
0.981818
 73
     1
 11
0.0000000000000000
 21
1.000000
 31
0.000000
  7
BIGFONT
  0
ENDSEC
  0
SECTION
  2
OBJECTS
  0
DICTIONARY
  5
821
100
AcDbDictionary
281
     1
  3
ACAD_COLOR
350
822
  3
ACAD_GROUP
350
823
  3
ACAD_LAYOUT
350
824
  3
ACAD_MATERIAL
350
825
  3
ACAD_MLINESTYLE
350
826
  3
CONTENTDICTIONARY
350
82c
  0
DICTIONARY
  5
822
102
{ACAD_REACTORS
330
821
102
}
330
821
100
AcDbDictionary
281
     1
  0
DICTIONARY
  5
823
102
{ACAD_REACTORS
330
821
102
}
330
821
100
AcDbDictionary
281
     1
  3
Layout1
350
82d
  3
Layout2
350
82e
  3
Model
350
871
  0
DICTIONARY
  5
824
102
{ACAD_REACTORS
330
821
102
}
330
821
100
AcDbDictionary
281
     1
  0
DICTIONARY
  5
825
102
{ACAD_REACTORS
330
821
102
}
330
821
100
AcDbDictionary
281
     1
  0
DICTIONARY
  5
826
102
{ACAD_REACTORS
330
821
102
}
330
821
100
AcDbDictionary
281
     1
  3
Standard
350
82f
  0
DICTIONARY
  5
827
102
{ACAD_REACTORS
330
821
102
}
330
821
100
AcDbDictionary
281
     1
  0
ACDBDICTIONARYWDFLT
  5
828
102
{ACAD_REACTORS
330
821
102
}
330
821
100
AcDbDictionary
281
     1
  3
Normal
350
872
100
AcDbDictionaryWithDefault
340
872
  0
DICTIONARY
  5
829
102
{ACAD_REACTORS
330
821
102
}
330
821
100
AcDbDictionary
281
     1
  3
Standard
350
873
  0
DICTIONARY
  5
82a
102
{ACAD_REACTORS
330
821
102
}
330
821
100
AcDbDictionary
281
     1
  3
CEPSNTYPE
350
831
  3
FINGERPRINTGUID
350
832
  3
HYPERLINKBASE
350
833
  3
INSUNITS
350
834
  3
LAYOUTDICT
350
835
  3
LWETCUNION
350
836
  3
PLOTSETDICT
350
837
  3
PLOTSTYLNAMDICT
350
838
  3
PSVPSCALE
350
839
  3
PUCSBASE
350
83a
  3
PUCSORGBACK
350
83b
  3
PUCSORGBOTTOM
350
83c
  3
PUCSORGFRONT
350
83d
  3
PUCSORGLEFT
350
83e
  3
PUCSORGRIGHT
350
83f
  3
PUCSORGTOP
350
840
  3
PUCSORTHOREF
350
841
  3
PUCSORTHOVIEW
350
842
  3
STYLESHEET
350
843
  3
TSTACKALIGN
350
844
  3
TSTACKSIZE
350
845
  3
UCSBASE
350
846
  3
UCSORGBACK
350
847
  3
UCSORGBOTTOM
350
848
  3
UCSORGFRONT
350
849
  3
UCSORGLEFT
350
84a
  3
UCSORGRIGHT
350
84b
  3
UCSORGTOP
350
84c
  3
UCSORTHOREF
350
84d
  3
UCSORTHOVIEW
350
84e
  3
VERSIONGUID
350
84f
  0
DICTIONARY
  5
82b
102
{ACAD_REACTORS
330
821
102
}
330
821
100
AcDbDictionary
281
     1
  3
CTABLESTYLE
350
850
  3
DIMASSOC
350
851
  3
HIDETEXT
350
852
  3
PROJECTNAME
350
853
  0
LAYOUT
  5
82c
102
{ACAD_XDICTIONARY
360
b37
102
}
102
{ACAD_REACTORS
330
822
102
}
330
822
100
AcDbPlotSettings
  1

  2

  4

  6

 40
0.000000
 41
0.000000
 42
0.000000
 43
0.000000
 44
0.000000
 45
0.000000
 46
0.000000
 47
0.000000
 48
0.000000
 49
0.000000
140
0.000000
141
0.000000
142
1.000000
143
1.000000
 70
   688
 72
     0
 73
     0
 74
     5
  7

 75
    16
147
1.000000
148
0.000000
149
0.000000
100
AcDbLayout
  1
Layout1
 70
     1
 71
     1
 10
0.000000
 20
0.000000
 11
197.100000
 21
283.100000
 12
0.000000
 22
0.000000
 32
0.000000
 14
100000000000000000000.000000
 24
100000000000000000000.000000
 34
100000000000000000000.000000
 15
-100000000000000000000.000000
 25
-100000000000000000000.000000
 35
-100000000000000000000.000000
146
0.000000
 13
0.000000
 23
0.000000
 33
0.000000
 16
1.000000
 26
0.000000
 36
0.000000
 17
0.000000
 27
1.000000
 37
0.000000
 76
     0
330
826
  0
LAYOUT
  5
82d
102
{ACAD_XDICTIONARY
360
b39
102
}
102
{ACAD_REACTORS
330
822
102
}
330
822
100
AcDbPlotSettings
  1

  2

  4

  6

 40
0.000000
 41
0.000000
 42
0.000000
 43
0.000000
 44
0.000000
 45
0.000000
 46
0.000000
 47
0.000000
 48
0.000000
 49
0.000000
140
0.000000
141
0.000000
142
1.000000
143
1.000000
 70
   688
 72
     0
 73
     0
 74
     5
  7

 75
    16
147
1.000000
148
0.000000
149
0.000000
100
AcDbLayout
  1
Layout2
 70
     1
 71
     2
 10
0.000000
 20
0.000000
 11
197.100000
 21
283.100000
 12
0.000000
 22
0.000000
 32
0.000000
 14
0.000000
 24
0.000000
 34
0.000000
 15
0.000000
 25
0.000000
 35
0.000000
146
0.000000
 13
0.000000
 23
0.000000
 33
0.000000
 16
1.000000
 26
0.000000
 36
0.000000
 17
0.000000
 27
1.000000
 37
0.000000
 76
     0
330
82d
  0
LAYOUT
  5
82e
102
{ACAD_XDICTIONARY
360
b3b
102
}
102
{ACAD_REACTORS
330
822
102
}
330
822
100
AcDbPlotSettings
  1

  2

  4

  6

 40
0.000000
 41
0.000000
 42
0.000000
 43
0.000000
 44
0.000000
 45
0.000000
 46
0.000000
 47
0.000000
 48
0.000000
 49
0.000000
140
0.000000
141
0.000000
142
1.000000
143
1.000000
 70
  1712
 72
     0
 73
     0
 74
     0
  7

 75
    16
147
1.000000
148
0.000000
149
0.000000
100
AcDbLayout
  1
Model
 70
     1
 71
     0
 10
0.000000
 20
0.000000
 11
197.100000
 21
283.100000
 12
0.000000
 22
0.000000
 32
0.000000
 14
0.000000
 24
0.000000
 34
0.000000
 15
0.000000
 25
0.000000
 35
0.000000
146
0.000000
 13
0.000000
 23
0.000000
 33
0.000000
 16
1.000000
 26
0.000000
 36
0.000000
 17
0.000000
 27
1.000000
 37
0.000000
 76
     0
330
82e
  0
MLINESTYLE
  5
82f
102
{ACAD_REACTORS
330
82e
102
}
330
82e
100
AcDbMlineStyle
  2
STANDARD
 70
     0
  3
 
 62
   256
 51
90.000000
 52
90.000000
 71
     2
 49
0.500000
 62
   256
  6
BYLAYER
 49
-0.500000
 62
   256
  6
BYLAYER
  0
ACDBPLACEHOLDER
  5
830
102
{ACAD_REACTORS
330
82f
102
}
330
82f
  0
DICTIONARY
  5
b37
100
AcDbDictionary
280
     1
281
     1
  3
ACAD_XREC_ROUNDTRIP
360
b38
  0
DICTIONARY
  5
b39
100
AcDbDictionary
280
     1
281
     1
  3
ACAD_XREC_ROUNDTRIP
360
b3a
  0
DICTIONARY
  5
b3b
100
AcDbDictionary
280
     1
281
     1
  3
ACAD_XREC_ROUNDTRIP
360
b3c
  0
XRECORD
  5
b38
102
{ACAD_REACTORS
330
b37
102
}
330
b37
100
AcDbXrecord
280
     1
102
SHADEPLOT
 70
     0
102
SHADEPLOTRESLEVEL
 70
     2
102
SHADEPLOTCUSTOMDPI
 70
   300
  0
XRECORD
  5
b3a
102
{ACAD_REACTORS
330
b39
102
}
330
b39
100
AcDbXrecord
280
     1
102
SHADEPLOT
 70
     0
102
SHADEPLOTRESLEVEL
 70
     2
102
SHADEPLOTCUSTOMDPI
 70
   300
  0
XRECORD
  5
b3c
102
{ACAD_REACTORS
330
b3b
102
}
330
b3b
100
AcDbXrecord
280
     1
102
SHADEPLOT
 70
     0
102
SHADEPLOTRESLEVEL
 70
     2
102
SHADEPLOTCUSTOMDPI
 70
   300
  0
ENDSEC
  0
EOF
