  0
SECTION
  2
HEADER
  9
$ACADVER
  1
AC1018
  9
$ACADMAINTVER
 70
     0
  9
$DWGCODEPAGE
  3
ANSI_932
  9
$INSBASE
 10
0.000000
 20
0.000000
 30
0.000000
  9
$EXTMIN
 10
0.000000
 20
0.000000
 30
0.000000
  9
$EXTMAX
 10
197.100000
 20
283.100000
 30
0.000000
  9
$LIMMIN
 10
0.000000
 20
0.000000
  9
$LIMMAX
 10
197.100000
 20
283.100000
  9
$ORTHOMODE
 70
     0
  9
$REGENMODE
 70
     1
  9
$FILLMODE
 70
     1
  9
$QTEXTMODE
 70
     0
  9
$MIRRTEXT
 70
     1
  9
$LTSCALE
 40
1.000000
  9
$ATTMODE
 70
     1
  9
$TEXTSIZE
 40
2.500000
  9
$TRACEWID
 40
1.000000
  9
$TEXTSTYLE
  7
BIGFONT
  9
$CLAYER
  8
0
  9
$CELTYPE
  6
BYLAYER
  9
$CECOLOR
 62
   256
  9
$CELTSCALE
 40
1.000000
  9
$DISPSILH
 70
     0
  9
$DIMSCALE
 40
1.000000
  9
$DIMASZ
 40
2.500000
  9
$DIMEXO
 40
0.625000
  9
$DIMDLI
 40
3.750000
  9
$DIMRND
 40
0.000000
  9
$DIMDLE
 40
0.000000
  9
$DIMEXE
 40
1.250000
  9
$DIMTP
 40
0.000000
  9
$DIMTM
 40
0.000000
  9
$DIMTXT
 40
2.500000
  9
$DIMCEN
 40
2.500000
  9
$DIMTSZ
 40
0.000000
  9
$DIMTOL
 70
     0
  9
$DIMLIM
 70
     0
  9
$DIMTIH
 70
     0
  9
$DIMTOH
 70
     0
  9
$DIMSE1
 70
     0
  9
$DIMSE2
 70
     0
  9
$DIMTAD
 70
     1
  9
$DIMZIN
 70
     8
  9
$DIMBLK
  1

  9
$DIMASO
 70
     1
  9
$DIMSHO
 70
     1
  9
$DIMPOST
  1

  9
$DIMAPOST
  1

  9
$DIMALT
 70
     0
  9
$DIMALTD
 70
     4
  9
$DIMALTF
 40
0.039400
  9
$DIMLFAC
 40
1.000000
  9
$DIMTOFL
 70
     1
  9
$DIMTVP
 40
0.000000
  9
$DIMTIX
 70
     0
  9
$DIMSOXD
 70
     0
  9
$DIMSAH
 70
     0
  9
$DIMBLK1
  1

  9
$DIMBLK2
  1

  9
$DIMSTYLE
  2
STANDARD
  9
$DIMCLRD
 70
     0
  9
$DIMCLRE
 70
     0
  9
$DIMCLRT
 70
     0
  9
$DIMTFAC
 40
1.000000
  9
$DIMGAP
 40
0.625000
  9
$DIMJUST
 70
     0
  9
$DIMSD1
 70
     0
  9
$DIMSD2
 70
     0
  9
$DIMTOLJ
 70
     1
  9
$DIMTZIN
 70
     0
  9
$DIMALTZ
 70
     0
  9
$DIMALTTZ
 70
     0
  9
$DIMUPT
 70
     0
  9
$DIMDEC
 70
     4
  9
$DIMTDEC
 70
     4
  9
$DIMALTU
 70
     8
  9
$DIMALTTD
 70
     4
  9
$DIMTXSTY
  7
STANDARD
  9
$DIMAUNIT
 70
     0
  9
$DIMADEC
 70
     0
  9
$DIMALTRND
 40
0.000000
  9
$DIMAZIN
 70
     0
  9
$DIMDSEP
 70
    46
  9
$DIMATFIT
 70
     3
  9
$DIMFRAC
 70
     0
  9
$DIMLDRBLK
  1

  9
$DIMLUNIT
 70
     2
  9
$DIMLWD
 70
-2
  9
$DIMLWE
 70
-2
  9
$DIMTMOVE
 70
     0
  9
$LUNITS
 70
     2
  9
$LUPREC
 70
     4
  9
$AXISMODE
 70
     0
  9
$SKETCHINC
 40
1.000000
  9
$FILLETRAD
 40
10.000000
  9
$AUNITS
 70
     0
  9
$AUPREC
 70
     0
  9
$MENU
  1
acad
  9
$ELEVATION
 40
0.000000
  9
$PELEVATION
 40
0.000000
  9
$THICKNESS
 40
0.000000
  9
$LIMCHECK
 70
     0
  9
$BLIPMODE
 70
     0
  9
$CHAMFERA
 40
10.000000
  9
$CHAMFERB
 40
10.000000
  9
$CHAMFERC
 40
20.000000
  9
$CHAMFERD
 40
0.000000
  9
$SKPOLY
 70
     0
  9
$TDCREATE
 40
2447851.677998
  9
$TDUCREATE
 40
2447851.677998
  9
$TDUPDATE
 40
2447851.677998
  9
$TDUUPDATE
 40
2447851.677998
  9
$TDINDWG
 40
0.000000
  9
$TDUSRTIMER
 40
0.000000
  9
$USRTIMER
 70
     1
  9
$ANGBASE
 50
0.000000
  9
$ANGDIR
 70
     0
  9
$PDMODE
 70
     0
  9
$PDSIZE
 40
0.000000
  9
$PLINEWID
 40
0.000000
  9
$SPLFRAME
 70
     0
  9
$SPLINETYPE
 70
     6
  9
$SPLINESEGS
 70
     8
  9
$HANDSEED
  5
FFFFFFF
  9
$SURFTAB1
 70
     6
  9
$SURFTAB2
 70
     6
  9
$SURFTYPE
 70
     6
  9
$SURFU
 70
     6
  9
$SURFV
 70
     6
  9
$UCSBASE
  2

  9
$UCSNAME
  2

  9
$UCSORG
 10
0.000000
 20
0.000000
 30
0.000000
  9
$UCSXDIR
 10
1.000000
 20
0.000000
 30
0.000000
  9
$UCSYDIR
 10
0.000000
 20
1.000000
 30
0.000000
  9
$UCSORTHOREF
  2

  9
$UCSORTHOVIEW
 70
     0
  9
$UCSORGTOP
 10
0.000000
 20
0.000000
 30
0.000000
  9
$UCSORGBOTTOM
 10
0.000000
 20
0.000000
 30
0.000000
  9
$UCSORGLEFT
 10
0.000000
 20
0.000000
 30
0.000000
  9
$UCSORGRIGHT
 10
0.000000
 20
0.000000
 30
0.000000
  9
$UCSORGFRONT
 10
0.000000
 20
0.000000
 30
0.000000
  9
$UCSORGBACK
 10
0.000000
 20
0.000000
 30
0.000000
  9
$PUCSBASE
  2

  9
$PUCSNAME
  2

  9
$PUCSORG
 10
0.000000
 20
0.000000
 30
0.000000
  9
$PUCSXDIR
 10
1.000000
 20
0.000000
 30
0.000000
  9
$PUCSYDIR
 10
0.000000
 20
1.000000
 30
0.000000
  9
$PUCSORTHOREF
  2

  9
$PUCSORTHOVIEW
 70
     0
  9
$PUCSORGTOP
 10
0.000000
 20
0.000000
 30
0.000000
  9
$PUCSORGBOTTOM
 10
0.000000
 20
0.000000
 30
0.000000
  9
$PUCSORGLEFT
 10
0.000000
 20
0.000000
 30
0.000000
  9
$PUCSORGRIGHT
 10
0.000000
 20
0.000000
 30
0.000000
  9
$PUCSORGFRONT
 10
0.000000
 20
0.000000
 30
0.000000
  9
$PUCSORGBACK
 10
0.000000
 20
0.000000
 30
0.000000
  9
$USERI1
 70
     0
  9
$USERI2
 70
     0
  9
$USERI3
 70
     0
  9
$USERI4
 70
     0
  9
$USERI5
 70
     0
  9
$USERR1
 40
0.000000
  9
$USERR2
 40
0.000000
  9
$USERR3
 40
0.000000
  9
$USERR4
 40
0.000000
  9
$USERR5
 40
0.000000
  9
$WORLDVIEW
 70
     1
  9
$SHADEDGE
 70
     3
  9
$SHADEDIF
 70
    70
  9
$TILEMODE
 70
     1
  9
$MAXACTVP
 70
    48
  9
$PINSBASE
 10
0.000000
 20
0.000000
 30
0.000000
  9
$PLIMCHECK
 70
     0
  9
$PEXTMIN
 10
100000000000000000000.000000
 20
100000000000000000000.000000
 30
100000000000000000000.000000
  9
$PEXTMAX
 10
-100000000000000000000.000000
 20
-100000000000000000000.000000
 30
-100000000000000000000.000000
  9
$PLIMMIN
 10
0.000000
 20
0.000000
  9
$PLIMMAX
 10
197.100000
 20
283.100000
  9
$UNITMODE
 70
     0
  9
$VISRETAIN
 70
     1
  9
$PLINEGEN
 70
     0
  9
$PSLTSCALE
 70
     1
  9
$TREEDEPTH
 70
  3020
  9
$CMLSTYLE
  2
STANDARD
  9
$CMLJUST
 70
     0
  9
$CMLSCALE
 40
20.000000
  9
$PROXYGRAPHICS
 70
     1
  9
$MEASUREMENT
 70
     1
  9
$CELWEIGHT
370
-1
  9
$ENDCAPS
280
     0
  9
$JOINSTYLE
280
     0
  9
$LWDISPLAY
290
     1
  9
$INSUNITS
 70
     0
  9
$HYPERLINKBASE
  1

  9
$STYLESHEET
  1

  9
$XEDIT
290
     1
  9
$CEPSNTYPE
380
     0
  9
$PSTYLEMODE
290
     1
  9
$FINGERPRINTGUID
  2
{01801163-5BC0-459E-B9C7-2188C09ED432}
  9
$VERSIONGUID
  2
{7F326DDD-95DF-42AD-9861-A0CD9F0961F2}
  9
$EXTNAMES
290
     1
  9
$PSVPSCALE
 40
0.0
  9
$OLESTARTUP
290
     0
  9
$SORTENTS
280
   127
  9
$INDEXCTL
280
     0
  9
$HIDETEXT
280
     1
  9
$XCLIPFRAME
290
     0
  9
$HALOGAP
280
     0
  9
$OBSCOLOR
 70
   257
  9
$OBSLTYPE
280
     0
  9
$INTERSECTIONDISPLAY
280
     0
  9
$INTERSECTIONCOLOR
 70
   257
  9
$DIMASSOC
280
     2
  9
$PROJECTNAME
  1

  0
ENDSEC
  0
SECTION
  2
TABLES
  0
TABLE
  2
VPORT
  5
a2
100
AcDbSymbolTable
 70
     2
  0
VPORT
  5
a5
100
AcDbSymbolTableRecord
100
AcDbViewportTableRecord
  2
*ACTIVE
 70
     0
 10
0.000000
 20
0.000000
 11
1.000000
 21
1.000000
 12
300.000000
 22
200.000000
 13
0.000000
 23
0.000000
 14
10.000000
 24
10.000000
 15
10.000000
 25
10.000000
 16
0.000000
 26
0.000000
 36
1.000000
 17
0.000000
 27
0.000000
 37
0.000000
 40
300.000000
 41
1.600432
 42
50.000000
 43
0.000000
 44
0.000000
 50
0.000000
 51
0.000000
 71
     0
 72
   100
 73
     1
 74
     1
 75
     0
 76
     0
 77
     0
 78
     0
  0
ENDTAB
  0
TABLE
  2
LTYPE
  5
a8
100
AcDbSymbolTable
 70
    11
  0
LTYPE
  5
ab
100
AcDbSymbolTableRecord
100
AcDbLinetypeTableRecord
  2
BYBLOCK
 70
    64
  3
BYBLOCK
 72
    65
 73
     0
 40
0.000000
  0
LTYPE
  5
ae
100
AcDbSymbolTableRecord
100
AcDbLinetypeTableRecord
  2
BYLAYER
 70
    64
  3
BYLAYER
 72
    65
 73
     0
 40
0.000000
  0
LTYPE
  5
b1
100
AcDbSymbolTableRecord
100
AcDbLinetypeTableRecord
  2
CONTINUOUS
 70
    64
  3
実線
 72
    65
 73
     0
 40
0.000000
  0
LTYPE
  5
b4
100
AcDbSymbolTableRecord
100
AcDbLinetypeTableRecord
  2
DASHED
 70
    64
  3
__ __ __ __ __ __ __ __ __ __ __ __ __ __ __
 72
    65
 73
     2
 40
0.750000
 49
0.500000
 74
     0
 49
-0.250000
 74
     0
  0
LTYPE
  5
b7
100
AcDbSymbolTableRecord
100
AcDbLinetypeTableRecord
  2
HIDDEN
 70
    64
  3
_ _ _ _ _ _ _ _ _ _ _ _ _ _ _ _ _ _ _ _ _ _ _
 72
    65
 73
     2
 40
0.375000
 49
0.250000
 74
     0
 49
-0.125000
 74
     0
  0
LTYPE
  5
ba
100
AcDbSymbolTableRecord
100
AcDbLinetypeTableRecord
  2
CENTER
 70
    64
  3
____ _ ____ _ ____ _ ____ _ ____ _ ____ _ ____
 72
    65
 73
     4
 40
2.000000
 49
1.250000
 74
     0
 49
-0.250000
 74
     0
 49
0.250000
 74
     0
 49
-0.250000
 74
     0
  0
LTYPE
  5
bd
100
AcDbSymbolTableRecord
100
AcDbLinetypeTableRecord
  2
PHANTOM
 70
    64
  3
_____ _ _ _____ _ _ _____ _ _ _____ _ _ ____
 72
    65
 73
     6
 40
2.500000
 49
1.250000
 74
     0
 49
-0.250000
 74
     0
 49
0.250000
 74
     0
 49
-0.250000
 74
     0
 49
0.250000
 74
     0
 49
-0.250000
 74
     0
  0
LTYPE
  5
c0
100
AcDbSymbolTableRecord
100
AcDbLinetypeTableRecord
  2
DOT
 70
    64
  3
...............................................
 72
    65
 73
     2
 40
0.250000
 49
0.000000
 74
     0
 49
-0.250000
 74
     0
  0
LTYPE
  5
c3
100
AcDbSymbolTableRecord
100
AcDbLinetypeTableRecord
  2
DASHDOT
 70
    64
  3
__ . __ . __ . __ . __ . __ . __ . __ . __ . __
 72
    65
 73
     4
 40
1.000000
 49
0.500000
 74
     0
 49
-0.250000
 74
     0
 49
0.000000
 74
     0
 49
-0.250000
 74
     0
  0
LTYPE
  5
c6
100
AcDbSymbolTableRecord
100
AcDbLinetypeTableRecord
  2
BORDER
 70
    64
  3
__ __ . __ __ . __ __ . __ __ . __ __ . __ __
 72
    65
 73
     6
 40
1.750000
 49
0.500000
 74
     0
 49
-0.250000
 74
     0
 49
0.500000
 74
     0
 49
-0.250000
 74
     0
 49
0.000000
 74
     0
 49
-0.250000
 74
     0
  0
LTYPE
  5
c9
100
AcDbSymbolTableRecord
100
AcDbLinetypeTableRecord
  2
DIVIDE
 70
    64
  3
__ . . __ . . __ . . __ . . __ . . __ . . __
 72
    65
 73
     6
 40
1.250000
 49
0.500000
 74
     0
 49
-0.250000
 74
     0
 49
0.000000
 74
     0
 49
-0.250000
 74
     0
 49
0.000000
 74
     0
 49
-0.250000
 74
     0
  0
ENDTAB
  0
TABLE
  2
LAYER
  5
cc
100
AcDbSymbolTable
 70
     2
  0
LAYER
  5
cf
100
AcDbSymbolTableRecord
100
AcDbLayerTableRecord
  2
0
 70
     0
 62
     7
  6
CONTINUOUS
370
 65533
390
	F
  0
LAYER
  5
d2
100
AcDbSymbolTableRecord
100
AcDbLayerTableRecord
  2
B
 70
     0
 62
     7
  6
CONTINUOUS
370
 65533
390
	F
  0
LAYER
  5
d5
100
AcDbSymbolTableRecord
100
AcDbLayerTableRecord
  2
C
 70
     0
 62
     7
  6
CONTINUOUS
370
 65533
390
	F
  0
LAYER
  5
d8
100
AcDbSymbolTableRecord
100
AcDbLayerTableRecord
  2
D
 70
     0
 62
     7
  6
CONTINUOUS
370
 65533
390
	F
  0
LAYER
  5
db
100
AcDbSymbolTableRecord
100
AcDbLayerTableRecord
  2
E
 70
     0
 62
     7
  6
CONTINUOUS
370
 65533
390
	F
  0
LAYER
  5
de
100
AcDbSymbolTableRecord
100
AcDbLayerTableRecord
  2
F
 70
     0
 62
     7
  6
CONTINUOUS
370
 65533
390
	F
  0
LAYER
  5
e1
100
AcDbSymbolTableRecord
100
AcDbLayerTableRecord
  2
G
 70
     0
 62
     7
  6
CONTINUOUS
370
 65533
390
	F
  0
LAYER
  5
e4
100
AcDbSymbolTableRecord
100
AcDbLayerTableRecord
  2
H
 70
     0
 62
     7
  6
CONTINUOUS
370
 65533
390
	F
  0
LAYER
  5
e7
100
AcDbSymbolTableRecord
100
AcDbLayerTableRecord
  2
I
 70
     0
 62
     7
  6
CONTINUOUS
370
 65533
390
	F
  0
LAYER
  5
ea
100
AcDbSymbolTableRecord
100
AcDbLayerTableRecord
  2
J
 70
     0
 62
     7
  6
CONTINUOUS
370
 65533
390
	F
  0
LAYER
  5
ed
100
AcDbSymbolTableRecord
100
AcDbLayerTableRecord
  2
K
 70
     0
 62
     7
  6
CONTINUOUS
370
 65533
390
	F
  0
LAYER
  5
f0
100
AcDbSymbolTableRecord
100
AcDbLayerTableRecord
  2
L
 70
     0
 62
     7
  6
CONTINUOUS
370
 65533
390
	F
  0
LAYER
  5
f3
100
AcDbSymbolTableRecord
100
AcDbLayerTableRecord
  2
M
 70
     0
 62
     7
  6
CONTINUOUS
370
 65533
390
	F
  0
LAYER
  5
f6
100
AcDbSymbolTableRecord
100
AcDbLayerTableRecord
  2
N
 70
     0
 62
     7
  6
CONTINUOUS
370
 65533
390
	F
  0
ENDTAB
  0
TABLE
  2
STYLE
  5
f9
100
AcDbSymbolTable
 70
     2
  0
STYLE
  5
fc
100
AcDbSymbolTableRecord
100
AcDbTextStyleTableRecord
  2
STANDARD
 70
     0
 40
0.000000
 41
0.500000
 50
0.000000
 71
     0
 42
0.300000
  3
txt
  4

  0
STYLE
  5
ff
100
AcDbSymbolTableRecord
100
AcDbTextStyleTableRecord
  2
BIGFONT
 70
    64
 40
0.000000
 41
1.000000
 50
0.000000
 71
     0
 42
0.200000
  3

  4
bigfont
  0
ENDTAB
  0
TABLE
  2
VIEW
  5
102
100
AcDbSymbolTable
 70
     0
  0
ENDTAB
  0
TABLE
  2
UCS
  5
105
100
AcDbSymbolTable
 70
     0
  0
ENDTAB
  0
TABLE
  2
APPID
  5
108
100
AcDbSymbolTable
 70
     3
  0
APPID
  5
10b
100
AcDbSymbolTableRecord
100
AcDbRegAppTableRecord
  2
ACAD
 70
     0
  0
APPID
  5
10e
100
AcDbSymbolTableRecord
100
AcDbRegAppTableRecord
  2
CONTENTTABDATA
 70
     0
  0
APPID
  5
111
100
AcDbSymbolTableRecord
100
AcDbRegAppTableRecord
  2
CONTENTCURRENTTAB
 70
     0
  0
ENDTAB
  0
TABLE
  2
DIMSTYLE
  5
114
330
     0
100
AcDbSymbolTable
 70
     2
100
AcDbDimStyleTable
 70
     1
  0
DIMSTYLE
105
117
100
AcDbSymbolTableRecord
100
AcDbDimStyleTableRecord
  2
STANDARD
 70
     0
  3

  4

  5

  6

  7

 40
1.000000
 41
0.180000
 42
0.062500
 43
0.380000
 44
0.180000
 45
0.000000
 46
0.000000
 47
0.000000
 48
0.000000
140
0.180000
141
0.090000
142
0.000000
143
25.400000
144
1.000000
145
0.000000
146
1.000000
147
0.090000
 71
     0
 72
     0
 73
     1
 74
     1
 75
     0
 76
     0
 77
     0
 78
     0
170
     0
171
     2
172
     0
173
     0
174
     0
175
     0
176
     0
177
     0
178
     0
270
     2
271
     4
272
     4
273
     2
274
     2
340
fc
275
     0
280
     0
281
     0
282
     0
283
     1
284
     0
285
     0
286
     0
287
     3
288
     0
  0
ENDTAB
  0
TABLE
  2
BLOCK_RECORD
  5
11a
100
AcDbSymbolTable
 70
     0
  0
BLOCK_RECORD
  5
11d
100
AcDbSymbolTableRecord
100
AcDbBlockTableRecord
  2
*MODEL_SPACE
  0
BLOCK_RECORD
  5
120
100
AcDbSymbolTableRecord
100
AcDbBlockTableRecord
  2
*PAPER_SPACE
  0
ENDTAB
  0
ENDSEC
  0
SECTION
  2
BLOCKS
  0
BLOCK
  5
123
330
124
100
AcDbEntity
  8
0
100
AcDbBlockBegin
  2
*Model_Space
 70
     0
 10
0.000000
 20
0.000000
 30
0.000000
  3
*Model_Space
  1
 
  0
ENDBLK
  5
126
330
124
100
AcDbEntity
  8
0
100
AcDbBlockEnd
  0
BLOCK
  5
129
330
12a
100
AcDbEntity
 67
     1
  8
0
100
AcDbBlockBegin
  2
*Paper_Space
 70
     0
 10
0.000000
 20
0.000000
 30
0.000000
  3
*Paper_Space
  1
 
  0
ENDBLK
  5
12c
330
12d
100
AcDbEntity
 67
     1
  8
0
100
AcDbBlockEnd
  0
ENDSEC
  0
SECTION
  2
ENTITIES
  0
CIRCLE
  5
12f
100
AcDbEntity
  8
0
370
    40
100
AcDbCircle
 10
29.975000
 20
277.325000
 40
0.675000
  0
LINE
  5
132
100
AcDbEntity
  8
0
370
    20
100
AcDbLine
 10
2.375000
 20
228.150000
 11
29.000000
 21
281.125000
  0
LINE
  5
135
100
AcDbEntity
  8
0
370
    20
100
AcDbLine
 10
3.950000
 20
228.150000
 11
29.975000
 21
280.175000
  0
LINE
  5
138
100
AcDbEntity
  8
0
370
    20
100
AcDbLine
 10
28.375000
 20
280.175000
 11
31.550000
 21
280.175000
  0
LINE
  5
13b
100
AcDbEntity
  8
0
370
    40
100
AcDbLine
 10
29.975000
 20
280.175000
 11
29.975000
 21
277.325000
  0
LINE
  5
13e
100
AcDbEntity
  8
0
370
    20
100
AcDbLine
 10
29.000000
 20
281.125000
 11
31.225000
 21
281.125000
  0
LINE
  5
141
100
AcDbEntity
  8
0
370
    60
100
AcDbLine
 10
27.800000
 20
229.300000
 11
27.800000
 21
215.975000
  0
LINE
  5
144
100
AcDbEntity
  8
0
370
    60
100
AcDbLine
 10
32.250000
 20
229.300000
 11
32.250000
 21
215.975000
  0
LINE
  5
147
100
AcDbEntity
  8
0
370
    40
100
AcDbLine
 10
29.400000
 20
197.250000
 11
30.650000
 21
197.250000
  0
LINE
  5
14a
100
AcDbEntity
  8
0
370
    40
100
AcDbLine
 10
28.325000
 20
196.500000
 11
29.400000
 21
197.250000
  0
LINE
  5
14d
100
AcDbEntity
  8
0
370
    40
100
AcDbLine
 10
31.825000
 20
196.500000
 11
30.650000
 21
197.250000
  0
LINE
  5
150
100
AcDbEntity
  8
0
370
    20
100
AcDbLine
 10
29.400000
 20
198.850000
 11
30.650000
 21
198.850000
  0
LINE
  5
153
100
AcDbEntity
  8
0
370
    20
100
AcDbLine
 10
31.675000
 20
194.225000
 11
28.400000
 21
194.225000
  0
POINT
  5
156
100
AcDbEntity
  8
0
100
AcDbPoint
 10
30.050000
 20
195.250000
  0
LINE
  5
159
100
AcDbEntity
  8
0
370
    20
100
AcDbLine
 10
29.400000
 20
222.000000
 11
30.650000
 21
222.000000
  0
LINE
  5
15c
100
AcDbEntity
  8
0
370
    20
100
AcDbLine
 10
29.400000
 20
205.500000
 11
30.650000
 21
205.500000
  0
MTEXT
  5
15f
100
AcDbEntity
  8
0
100
AcDbMText
 10
11.425000
 20
275.850000
 40
1.856250
 41
13.365000
 71
     1
 72
     5
  1
\fＭＳ ゴシック|b0|i0|c128|p49;\T1.8854;やぐら
 44
1.226497
 73
     1
  7
BIGFONT
  0
MTEXT
  5
162
100
AcDbEntity
  8
0
100
AcDbMText
 10
34.225000
 20
232.725000
 40
1.856250
 41
31.185000
 71
     1
 72
     5
  1
\fＭＳ ゴシック|b0|i0|c128|p49;\T1.8854;ボーリング機械
 44
1.226497
 73
     1
  7
BIGFONT
  0
MTEXT
  5
165
100
AcDbEntity
  8
0
100
AcDbMText
 10
44.800000
 20
222.100000
 40
1.856250
 41
35.640000
 71
     1
 72
     5
  1
\fＭＳ ゴシック|b0|i0|c128|p49;\T1.8854;ケーシングパイプ
 44
1.226497
 73
     1
  7
BIGFONT
  0
MTEXT
  5
168
100
AcDbEntity
  8
0
100
AcDbMText
 10
42.900000
 20
209.400000
 40
1.856250
 41
35.640000
 71
     1
 72
     5
  1
\fＭＳ ゴシック|b0|i0|c128|p49;\T1.8854;ボーリングロッド
 44
1.226497
 73
     1
  7
BIGFONT
  0
MTEXT
  5
16b
100
AcDbEntity
  8
0
100
AcDbMText
 10
42.575000
 20
202.425000
 40
1.856250
 41
49.005000
 71
     1
 72
     5
  1
\fＭＳ ゴシック|b0|i0|c128|p49;\T1.8854;ボーリング径（φ86mm）
 44
1.226497
 73
     1
  7
BIGFONT
  0
MTEXT
  5
16e
100
AcDbEntity
  8
0
100
AcDbMText
 10
41.925000
 20
189.100000
 40
1.856250
 41
49.005000
 71
     1
 72
     5
  1
\fＭＳ ゴシック|b0|i0|c128|p49;\T1.8854;シンウォールサンプラー
 44
1.226497
 73
     1
  7
BIGFONT
  0
LINE
  5
171
100
AcDbEntity
  8
0
370
    20
100
AcDbLine
 10
4.025000
 20
228.025000
 11
1.875000
 21
225.875000
  0
LINE
  5
174
100
AcDbEntity
  8
0
370
    20
100
AcDbLine
 10
6.225000
 20
228.025000
 11
4.025000
 21
225.800000
  0
LINE
  5
177
100
AcDbEntity
  8
0
370
    20
100
AcDbLine
 10
8.125000
 20
228.025000
 11
5.925000
 21
225.800000
  0
LINE
  5
17a
100
AcDbEntity
  8
0
370
    20
100
AcDbLine
 10
10.350000
 20
228.025000
 11
8.125000
 21
225.800000
  0
LINE
  5
17d
100
AcDbEntity
  8
0
370
    20
100
AcDbLine
 10
12.575000
 20
228.025000
 11
10.350000
 21
225.800000
  0
LINE
  5
180
100
AcDbEntity
  8
0
370
    20
100
AcDbLine
 10
14.800000
 20
228.025000
 11
12.575000
 21
225.800000
  0
LINE
  5
183
100
AcDbEntity
  8
0
370
    20
100
AcDbLine
 10
17.025000
 20
228.025000
 11
14.800000
 21
225.800000
  0
LINE
  5
186
100
AcDbEntity
  8
0
370
    20
100
AcDbLine
 10
19.250000
 20
228.025000
 11
17.025000
 21
225.800000
  0
LINE
  5
189
100
AcDbEntity
  8
0
370
    20
100
AcDbLine
 10
21.450000
 20
228.025000
 11
19.250000
 21
225.800000
  0
LINE
  5
18c
100
AcDbEntity
  8
0
370
    20
100
AcDbLine
 10
23.675000
 20
228.025000
 11
21.450000
 21
225.800000
  0
LINE
  5
18f
100
AcDbEntity
  8
0
370
    20
100
AcDbLine
 10
25.900000
 20
228.025000
 11
23.675000
 21
225.800000
  0
LINE
  5
192
100
AcDbEntity
  8
0
370
    20
100
AcDbLine
 10
25.900000
 20
225.800000
 11
27.800000
 21
227.700000
  0
LINE
  5
195
100
AcDbEntity
  8
0
370
    20
100
AcDbLine
 10
32.250000
 20
227.700000
 11
32.575000
 21
228.025000
  0
LINE
  5
198
100
AcDbEntity
  8
0
370
    20
100
AcDbLine
 10
34.775000
 20
228.025000
 11
32.575000
 21
225.800000
  0
LINE
  5
19b
100
AcDbEntity
  8
0
370
    20
100
AcDbLine
 10
37.000000
 20
228.025000
 11
34.775000
 21
225.800000
  0
LINE
  5
19e
100
AcDbEntity
  8
0
370
    20
100
AcDbLine
 10
39.225000
 20
228.025000
 11
37.000000
 21
225.800000
  0
LINE
  5
1a1
100
AcDbEntity
  8
0
370
    20
100
AcDbLine
 10
41.450000
 20
228.025000
 11
39.225000
 21
225.800000
  0
LINE
  5
1a4
100
AcDbEntity
  8
0
370
    20
100
AcDbLine
 10
43.675000
 20
228.025000
 11
41.450000
 21
225.800000
  0
LINE
  5
1a7
100
AcDbEntity
  8
0
370
    20
100
AcDbLine
 10
45.900000
 20
228.025000
 11
43.675000
 21
225.800000
  0
LINE
  5
1aa
100
AcDbEntity
  8
0
370
    20
100
AcDbLine
 10
48.100000
 20
228.025000
 11
45.900000
 21
225.800000
  0
LINE
  5
1ad
100
AcDbEntity
  8
0
370
    20
100
AcDbLine
 10
50.325000
 20
228.025000
 11
48.100000
 21
225.800000
  0
LINE
  5
1b0
100
AcDbEntity
  8
0
370
    20
100
AcDbLine
 10
52.550000
 20
228.025000
 11
50.325000
 21
225.800000
  0
LINE
  5
1b3
100
AcDbEntity
  8
0
370
    20
100
AcDbLine
 10
54.775000
 20
228.025000
 11
52.550000
 21
225.800000
  0
LINE
  5
1b6
100
AcDbEntity
  8
0
370
    20
100
AcDbLine
 10
57.000000
 20
228.025000
 11
54.775000
 21
225.800000
  0
LINE
  5
1b9
100
AcDbEntity
  8
0
370
    20
100
AcDbLine
 10
59.225000
 20
228.025000
 11
57.000000
 21
225.800000
  0
LINE
  5
1bc
100
AcDbEntity
  8
0
370
    20
100
AcDbLine
 10
61.425000
 20
228.025000
 11
59.225000
 21
225.800000
  0
LINE
  5
1bf
100
AcDbEntity
  8
0
370
    20
100
AcDbLine
 10
63.650000
 20
228.025000
 11
61.425000
 21
225.800000
  0
LINE
  5
1c2
100
AcDbEntity
  8
0
370
    20
100
AcDbLine
 10
1.875000
 20
228.025000
 11
27.800000
 21
228.025000
  0
LINE
  5
1c5
100
AcDbEntity
  8
0
370
    20
100
AcDbLine
 10
32.250000
 20
228.025000
 11
65.250000
 21
228.025000
  0
LINE
  5
1c8
100
AcDbEntity
  8
0
370
    20
100
AcDbLine
 10
65.250000
 20
227.400000
 11
63.650000
 21
225.800000
  0
LINE
  5
1cb
100
AcDbEntity
  8
0
370
    20
100
AcDbLine
 10
55.625000
 20
228.025000
 11
55.000000
 21
229.300000
  0
LINE
  5
1ce
100
AcDbEntity
  8
0
370
    20
100
AcDbLine
 10
53.125000
 20
234.175000
 11
44.725000
 21
252.150000
  0
LINE
  5
1d1
100
AcDbEntity
  8
0
370
    20
100
AcDbLine
 10
42.975000
 20
255.900000
 11
31.225000
 21
281.125000
  0
LINE
  5
1d4
100
AcDbEntity
  8
0
370
    20
100
AcDbLine
 10
54.050000
 20
228.025000
 11
53.400000
 21
229.300000
  0
LINE
  5
1d7
100
AcDbEntity
  8
0
370
    20
100
AcDbLine
 10
51.525000
 20
234.175000
 11
43.200000
 21
252.150000
  0
LINE
  5
1da
100
AcDbEntity
  8
0
370
    20
100
AcDbLine
 10
41.475000
 20
255.900000
 11
30.275000
 21
280.175000
  0
LWPOLYLINE
  5
1dd
100
AcDbEntity
  8
0
100
AcDbPolyline
 90
     7
 70
     0
 43
0.200000
 10
26.225000
 20
212.800000
 10
27.500000
 20
213.425000
 10
28.750000
 20
213.750000
 10
30.350000
 20
213.125000
 10
31.625000
 20
212.475000
 10
32.875000
 20
212.800000
 10
33.825000
 20
213.125000
  0
LWPOLYLINE
  5
1ee
100
AcDbEntity
  8
0
100
AcDbPolyline
 90
     7
 70
     0
 43
0.200000
 10
26.225000
 20
211.525000
 10
27.500000
 20
212.175000
 10
28.750000
 20
212.475000
 10
30.350000
 20
211.850000
 10
31.625000
 20
211.225000
 10
32.875000
 20
211.525000
 10
33.825000
 20
211.850000
  0
LINE
  5
1ff
100
AcDbEntity
  8
0
370
    20
100
AcDbLine
 10
27.825000
 20
213.450000
 11
27.800000
 21
215.650000
  0
LINE
  5
202
100
AcDbEntity
  8
0
370
    20
100
AcDbLine
 10
27.825000
 20
212.275000
 11
27.825000
 21
185.675000
  0
LINE
  5
205
100
AcDbEntity
  8
0
370
    20
100
AcDbLine
 10
29.400000
 20
212.475000
 11
29.400000
 21
197.250000
  0
LINE
  5
208
100
AcDbEntity
  8
0
370
    20
100
AcDbLine
 10
30.650000
 20
197.275000
 11
30.650000
 21
211.850000
  0
LINE
  5
20b
100
AcDbEntity
  8
0
370
    20
100
AcDbLine
 10
32.250000
 20
215.650000
 11
32.250000
 21
212.800000
  0
LINE
  5
20e
100
AcDbEntity
  8
0
370
    20
100
AcDbLine
 10
32.275000
 20
185.750000
 11
32.250000
 21
211.525000
  0
LINE
  5
211
100
AcDbEntity
  8
0
370
    20
100
AcDbLine
 10
27.800000
 20
224.850000
 11
15.425000
 21
224.850000
  0
LINE
  5
214
100
AcDbEntity
  8
0
370
    20
100
AcDbLine
 10
27.500000
 20
223.275000
 11
17.650000
 21
223.275000
  0
LINE
  5
217
100
AcDbEntity
  8
0
370
    20
100
AcDbLine
 10
27.800000
 20
221.675000
 11
20.200000
 21
221.675000
  0
LINE
  5
21a
100
AcDbEntity
  8
0
370
    20
100
AcDbLine
 10
27.800000
 20
220.100000
 11
21.775000
 21
220.100000
  0
LINE
  5
21d
100
AcDbEntity
  8
0
370
    20
100
AcDbLine
 10
27.800000
 20
218.500000
 11
21.775000
 21
218.500000
  0
LINE
  5
220
100
AcDbEntity
  8
0
370
    20
100
AcDbLine
 10
27.800000
 20
216.925000
 11
21.775000
 21
216.925000
  0
LWPOLYLINE
  5
223
100
AcDbEntity
  8
0
100
AcDbPolyline
 90
     7
 70
     0
 43
0.200000
 10
18.925000
 20
212.475000
 10
20.200000
 20
213.125000
 10
21.450000
 20
213.425000
 10
23.050000
 20
212.800000
 10
24.325000
 20
212.175000
 10
25.575000
 20
212.475000
 10
26.250000
 20
212.775000
  0
LWPOLYLINE
  5
234
100
AcDbEntity
  8
0
100
AcDbPolyline
 90
     7
 70
     0
 43
0.200000
 10
18.925000
 20
211.225000
 10
20.200000
 20
211.850000
 10
21.450000
 20
212.175000
 10
23.050000
 20
211.525000
 10
24.325000
 20
210.900000
 10
25.575000
 20
211.225000
 10
26.325000
 20
211.575000
  0
LWPOLYLINE
  5
245
100
AcDbEntity
  8
0
100
AcDbPolyline
 90
     7
 70
     0
 43
0.200000
 10
33.200000
 20
212.800000
 10
34.475000
 20
213.425000
 10
35.750000
 20
213.750000
 10
37.325000
 20
213.125000
 10
38.600000
 20
212.475000
 10
39.850000
 20
212.800000
 10
40.825000
 20
213.125000
  0
LWPOLYLINE
  5
256
100
AcDbEntity
  8
0
100
AcDbPolyline
 90
     7
 70
     0
 43
0.200000
 10
33.200000
 20
211.525000
 10
34.475000
 20
212.175000
 10
35.750000
 20
212.475000
 10
37.325000
 20
211.850000
 10
38.600000
 20
211.225000
 10
39.850000
 20
211.525000
 10
40.825000
 20
211.850000
  0
LINE
  5
267
100
AcDbEntity
  8
0
370
    20
100
AcDbLine
 10
27.500000
 20
198.525000
 11
25.575000
 21
198.525000
  0
LINE
  5
26a
100
AcDbEntity
  8
0
370
    20
100
AcDbLine
 10
24.325000
 20
198.525000
 11
22.425000
 21
198.525000
  0
LINE
  5
26d
100
AcDbEntity
  8
0
370
    20
100
AcDbLine
 10
27.175000
 20
197.250000
 11
27.800000
 21
197.250000
  0
LINE
  5
270
100
AcDbEntity
  8
0
370
    20
100
AcDbLine
 10
25.900000
 20
197.250000
 11
24.000000
 21
197.250000
  0
LINE
  5
273
100
AcDbEntity
  8
0
370
    20
100
AcDbLine
 10
27.500000
 20
195.975000
 11
25.575000
 21
195.975000
  0
LINE
  5
276
100
AcDbEntity
  8
0
370
    20
100
AcDbLine
 10
24.325000
 20
195.975000
 11
22.425000
 21
195.975000
  0
LINE
  5
279
100
AcDbEntity
  8
0
370
    20
100
AcDbLine
 10
27.175000
 20
194.725000
 11
27.800000
 21
194.725000
  0
LINE
  5
27c
100
AcDbEntity
  8
0
370
    20
100
AcDbLine
 10
25.900000
 20
194.725000
 11
24.000000
 21
194.725000
  0
LINE
  5
27f
100
AcDbEntity
  8
0
370
    20
100
AcDbLine
 10
27.500000
 20
193.450000
 11
25.575000
 21
193.450000
  0
LINE
  5
282
100
AcDbEntity
  8
0
370
    20
100
AcDbLine
 10
24.325000
 20
193.450000
 11
22.425000
 21
193.450000
  0
LINE
  5
285
100
AcDbEntity
  8
0
370
    20
100
AcDbLine
 10
27.850000
 20
192.250000
 11
27.350000
 21
192.250000
  0
LINE
  5
288
100
AcDbEntity
  8
0
370
    20
100
AcDbLine
 10
25.900000
 20
192.175000
 11
24.000000
 21
192.175000
  0
LINE
  5
28b
100
AcDbEntity
  8
0
370
    20
100
AcDbLine
 10
27.500000
 20
190.900000
 11
25.575000
 21
190.900000
  0
LINE
  5
28e
100
AcDbEntity
  8
0
370
    20
100
AcDbLine
 10
24.325000
 20
190.900000
 11
22.425000
 21
190.900000
  0
LINE
  5
291
100
AcDbEntity
  8
0
370
    20
100
AcDbLine
 10
27.850000
 20
189.650000
 11
27.175000
 21
189.650000
  0
LINE
  5
294
100
AcDbEntity
  8
0
370
    20
100
AcDbLine
 10
25.900000
 20
189.650000
 11
24.000000
 21
189.650000
  0
LINE
  5
297
100
AcDbEntity
  8
0
370
    20
100
AcDbLine
 10
27.500000
 20
188.375000
 11
25.575000
 21
188.375000
  0
LINE
  5
29a
100
AcDbEntity
  8
0
370
    20
100
AcDbLine
 10
24.325000
 20
188.375000
 11
22.425000
 21
188.375000
  0
LINE
  5
29d
100
AcDbEntity
  8
0
370
    20
100
AcDbLine
 10
27.875000
 20
187.125000
 11
27.125000
 21
187.100000
  0
LINE
  5
2a0
100
AcDbEntity
  8
0
370
    20
100
AcDbLine
 10
25.900000
 20
187.100000
 11
24.000000
 21
187.100000
  0
LINE
  5
2a3
100
AcDbEntity
  8
0
370
    20
100
AcDbLine
 10
27.500000
 20
185.825000
 11
25.575000
 21
185.825000
  0
LINE
  5
2a6
100
AcDbEntity
  8
0
370
    20
100
AcDbLine
 10
24.325000
 20
185.825000
 11
22.425000
 21
185.825000
  0
LINE
  5
2a9
100
AcDbEntity
  8
0
370
    20
100
AcDbLine
 10
28.300000
 20
184.575000
 11
27.175000
 21
184.575000
  0
LINE
  5
2ac
100
AcDbEntity
  8
0
370
    20
100
AcDbLine
 10
25.900000
 20
184.575000
 11
24.000000
 21
184.575000
  0
LINE
  5
2af
100
AcDbEntity
  8
0
370
    20
100
AcDbLine
 10
27.500000
 20
183.300000
 11
25.575000
 21
183.300000
  0
LINE
  5
2b2
100
AcDbEntity
  8
0
370
    20
100
AcDbLine
 10
24.325000
 20
183.300000
 11
22.425000
 21
183.300000
  0
LINE
  5
2b5
100
AcDbEntity
  8
0
370
    20
100
AcDbLine
 10
28.300000
 20
182.025000
 11
27.175000
 21
182.025000
  0
LINE
  5
2b8
100
AcDbEntity
  8
0
370
    20
100
AcDbLine
 10
25.900000
 20
182.025000
 11
24.000000
 21
182.025000
  0
LINE
  5
2bb
100
AcDbEntity
  8
0
370
    20
100
AcDbLine
 10
27.500000
 20
180.750000
 11
25.575000
 21
180.750000
  0
LINE
  5
2be
100
AcDbEntity
  8
0
370
    20
100
AcDbLine
 10
24.325000
 20
180.750000
 11
22.425000
 21
180.750000
  0
LINE
  5
2c1
100
AcDbEntity
  8
0
370
    20
100
AcDbLine
 10
28.300000
 20
179.500000
 11
27.175000
 21
179.500000
  0
LINE
  5
2c4
100
AcDbEntity
  8
0
370
    20
100
AcDbLine
 10
25.900000
 20
179.500000
 11
24.000000
 21
179.500000
  0
LINE
  5
2c7
100
AcDbEntity
  8
0
370
    20
100
AcDbLine
 10
27.500000
 20
178.225000
 11
25.575000
 21
178.225000
  0
LINE
  5
2ca
100
AcDbEntity
  8
0
370
    20
100
AcDbLine
 10
24.325000
 20
178.225000
 11
22.425000
 21
178.225000
  0
LINE
  5
2cd
100
AcDbEntity
  8
0
370
    20
100
AcDbLine
 10
28.300000
 20
176.950000
 11
27.175000
 21
176.950000
  0
LINE
  5
2d0
100
AcDbEntity
  8
0
370
    20
100
AcDbLine
 10
25.900000
 20
176.950000
 11
24.000000
 21
176.950000
  0
LINE
  5
2d3
100
AcDbEntity
  8
0
370
    20
100
AcDbLine
 10
27.500000
 20
175.675000
 11
25.575000
 21
175.675000
  0
LINE
  5
2d6
100
AcDbEntity
  8
0
370
    20
100
AcDbLine
 10
24.325000
 20
175.675000
 11
22.425000
 21
175.675000
  0
LINE
  5
2d9
100
AcDbEntity
  8
0
370
    20
100
AcDbLine
 10
28.300000
 20
174.400000
 11
27.175000
 21
174.400000
  0
LINE
  5
2dc
100
AcDbEntity
  8
0
370
    20
100
AcDbLine
 10
25.900000
 20
174.400000
 11
24.000000
 21
174.400000
  0
LINE
  5
2df
100
AcDbEntity
  8
0
370
    20
100
AcDbLine
 10
27.500000
 20
173.150000
 11
25.575000
 21
173.150000
  0
LINE
  5
2e2
100
AcDbEntity
  8
0
370
    20
100
AcDbLine
 10
24.325000
 20
173.150000
 11
22.425000
 21
173.150000
  0
LINE
  5
2e5
100
AcDbEntity
  8
0
370
    20
100
AcDbLine
 10
29.400000
 20
171.875000
 11
27.500000
 21
171.875000
  0
LINE
  5
2e8
100
AcDbEntity
  8
0
370
    20
100
AcDbLine
 10
26.225000
 20
171.875000
 11
24.325000
 21
171.875000
  0
LINE
  5
2eb
100
AcDbEntity
  8
0
370
    20
100
AcDbLine
 10
27.800000
 20
170.600000
 11
25.900000
 21
170.600000
  0
LINE
  5
2ee
100
AcDbEntity
  8
0
370
    20
100
AcDbLine
 10
24.625000
 20
170.600000
 11
22.725000
 21
170.600000
  0
LINE
  5
2f1
100
AcDbEntity
  8
0
370
    20
100
AcDbLine
 10
29.400000
 20
169.175000
 11
27.500000
 21
169.175000
  0
LINE
  5
2f4
100
AcDbEntity
  8
0
370
    20
100
AcDbLine
 10
26.225000
 20
169.175000
 11
24.325000
 21
169.175000
  0
POINT
  5
2f7
100
AcDbEntity
  8
0
100
AcDbPoint
 10
22.100000
 20
215.975000
  0
POINT
  5
2fa
100
AcDbEntity
  8
0
100
AcDbPoint
 10
24.000000
 20
215.650000
  0
POINT
  5
2fd
100
AcDbEntity
  8
0
100
AcDbPoint
 10
26.225000
 20
215.650000
  0
POINT
  5
300
100
AcDbEntity
  8
0
100
AcDbPoint
 10
22.100000
 20
214.375000
  0
POINT
  5
303
100
AcDbEntity
  8
0
100
AcDbPoint
 10
23.675000
 20
213.750000
  0
POINT
  5
306
100
AcDbEntity
  8
0
100
AcDbPoint
 10
25.575000
 20
213.750000
  0
POINT
  5
309
100
AcDbEntity
  8
0
100
AcDbPoint
 10
22.425000
 20
213.125000
  0
POINT
  5
30c
100
AcDbEntity
  8
0
100
AcDbPoint
 10
26.850000
 20
210.900000
  0
POINT
  5
30f
100
AcDbEntity
  8
0
100
AcDbPoint
 10
24.950000
 20
210.250000
  0
POINT
  5
312
100
AcDbEntity
  8
0
100
AcDbPoint
 10
22.100000
 20
210.250000
  0
POINT
  5
315
100
AcDbEntity
  8
0
100
AcDbPoint
 10
21.775000
 20
207.725000
  0
POINT
  5
318
100
AcDbEntity
  8
0
100
AcDbPoint
 10
23.375000
 20
209.000000
  0
POINT
  5
31b
100
AcDbEntity
  8
0
100
AcDbPoint
 10
26.225000
 20
209.000000
  0
POINT
  5
31e
100
AcDbEntity
  8
0
100
AcDbPoint
 10
26.225000
 20
206.450000
  0
POINT
  5
321
100
AcDbEntity
  8
0
100
AcDbPoint
 10
24.625000
 20
208.050000
  0
POINT
  5
324
100
AcDbEntity
  8
0
100
AcDbPoint
 10
23.050000
 20
207.100000
  0
POINT
  5
327
100
AcDbEntity
  8
0
100
AcDbPoint
 10
24.625000
 20
205.500000
  0
POINT
  5
32a
100
AcDbEntity
  8
0
100
AcDbPoint
 10
21.775000
 20
205.500000
  0
POINT
  5
32d
100
AcDbEntity
  8
0
100
AcDbPoint
 10
26.550000
 20
203.925000
  0
POINT
  5
330
100
AcDbEntity
  8
0
100
AcDbPoint
 10
23.675000
 20
204.225000
  0
POINT
  5
333
100
AcDbEntity
  8
0
100
AcDbPoint
 10
25.275000
 20
202.975000
  0
POINT
  5
336
100
AcDbEntity
  8
0
100
AcDbPoint
 10
22.725000
 20
202.975000
  0
POINT
  5
339
100
AcDbEntity
  8
0
100
AcDbPoint
 10
25.575000
 20
201.700000
  0
POINT
  5
33c
100
AcDbEntity
  8
0
100
AcDbPoint
 10
24.000000
 20
202.025000
  0
POINT
  5
33f
100
AcDbEntity
  8
0
100
AcDbPoint
 10
23.050000
 20
200.750000
  0
POINT
  5
342
100
AcDbEntity
  8
0
100
AcDbPoint
 10
26.225000
 20
200.425000
  0
LINE
  5
345
100
AcDbEntity
  8
0
370
    20
100
AcDbLine
 10
27.800000
 20
199.800000
 11
21.450000
 21
199.800000
  0
LINE
  5
348
100
AcDbEntity
  8
0
370
    20
100
AcDbLine
 10
23.050000
 20
197.250000
 11
21.450000
 21
197.250000
  0
LINE
  5
34b
100
AcDbEntity
  8
0
370
    20
100
AcDbLine
 10
23.050000
 20
194.725000
 11
21.450000
 21
194.725000
  0
LINE
  5
34e
100
AcDbEntity
  8
0
370
    20
100
AcDbLine
 10
23.050000
 20
192.175000
 11
21.450000
 21
192.175000
  0
LINE
  5
351
100
AcDbEntity
  8
0
370
    20
100
AcDbLine
 10
23.050000
 20
189.650000
 11
21.450000
 21
189.650000
  0
LINE
  5
354
100
AcDbEntity
  8
0
370
    20
100
AcDbLine
 10
23.050000
 20
187.100000
 11
21.450000
 21
187.100000
  0
LINE
  5
357
100
AcDbEntity
  8
0
370
    20
100
AcDbLine
 10
23.050000
 20
184.575000
 11
21.450000
 21
184.575000
  0
LINE
  5
35a
100
AcDbEntity
  8
0
370
    20
100
AcDbLine
 10
23.050000
 20
182.025000
 11
21.450000
 21
182.025000
  0
LINE
  5
35d
100
AcDbEntity
  8
0
370
    20
100
AcDbLine
 10
23.050000
 20
179.500000
 11
21.450000
 21
179.500000
  0
LINE
  5
360
100
AcDbEntity
  8
0
370
    20
100
AcDbLine
 10
23.050000
 20
176.950000
 11
21.450000
 21
176.950000
  0
LINE
  5
363
100
AcDbEntity
  8
0
370
    20
100
AcDbLine
 10
23.050000
 20
174.400000
 11
21.450000
 21
174.400000
  0
LINE
  5
366
100
AcDbEntity
  8
0
370
    20
100
AcDbLine
 10
23.375000
 20
171.875000
 11
21.775000
 21
171.875000
  0
LINE
  5
369
100
AcDbEntity
  8
0
370
    20
100
AcDbLine
 10
23.375000
 20
169.175000
 11
21.775000
 21
169.175000
  0
LINE
  5
36c
100
AcDbEntity
  8
0
370
    20
100
AcDbLine
 10
32.575000
 20
198.525000
 11
34.475000
 21
198.525000
  0
LINE
  5
36f
100
AcDbEntity
  8
0
370
    20
100
AcDbLine
 10
35.750000
 20
198.525000
 11
37.650000
 21
198.525000
  0
LINE
  5
372
100
AcDbEntity
  8
0
370
    20
100
AcDbLine
 10
32.875000
 20
197.250000
 11
32.250000
 21
197.250000
  0
LINE
  5
375
100
AcDbEntity
  8
0
370
    20
100
AcDbLine
 10
34.150000
 20
197.250000
 11
36.050000
 21
197.250000
  0
LINE
  5
378
100
AcDbEntity
  8
0
370
    20
100
AcDbLine
 10
32.575000
 20
195.975000
 11
34.475000
 21
195.975000
  0
LINE
  5
37b
100
AcDbEntity
  8
0
370
    20
100
AcDbLine
 10
35.750000
 20
195.975000
 11
37.650000
 21
195.975000
  0
LINE
  5
37e
100
AcDbEntity
  8
0
370
    20
100
AcDbLine
 10
32.875000
 20
194.725000
 11
32.250000
 21
194.725000
  0
LINE
  5
381
100
AcDbEntity
  8
0
370
    20
100
AcDbLine
 10
34.150000
 20
194.725000
 11
36.050000
 21
194.725000
  0
LINE
  5
384
100
AcDbEntity
  8
0
370
    20
100
AcDbLine
 10
32.575000
 20
193.450000
 11
34.475000
 21
193.450000
  0
LINE
  5
387
100
AcDbEntity
  8
0
370
    20
100
AcDbLine
 10
35.750000
 20
193.450000
 11
37.650000
 21
193.450000
  0
LINE
  5
38a
100
AcDbEntity
  8
0
370
    20
100
AcDbLine
 10
32.475000
 20
192.175000
 11
32.975000
 21
192.175000
  0
LINE
  5
38d
100
AcDbEntity
  8
0
370
    20
100
AcDbLine
 10
34.150000
 20
192.175000
 11
36.050000
 21
192.175000
  0
LINE
  5
390
100
AcDbEntity
  8
0
370
    20
100
AcDbLine
 10
32.575000
 20
190.900000
 11
34.475000
 21
190.900000
  0
LINE
  5
393
100
AcDbEntity
  8
0
370
    20
100
AcDbLine
 10
35.750000
 20
190.900000
 11
37.650000
 21
190.900000
  0
LINE
  5
396
100
AcDbEntity
  8
0
370
    20
100
AcDbLine
 10
32.300000
 20
189.650000
 11
32.875000
 21
189.650000
  0
LINE
  5
399
100
AcDbEntity
  8
0
370
    20
100
AcDbLine
 10
34.150000
 20
189.650000
 11
36.050000
 21
189.650000
  0
LINE
  5
39c
100
AcDbEntity
  8
0
370
    20
100
AcDbLine
 10
32.575000
 20
188.375000
 11
34.475000
 21
188.375000
  0
LINE
  5
39f
100
AcDbEntity
  8
0
370
    20
100
AcDbLine
 10
35.750000
 20
188.375000
 11
37.650000
 21
188.375000
  0
LINE
  5
3a2
100
AcDbEntity
  8
0
370
    20
100
AcDbLine
 10
32.300000
 20
187.150000
 11
32.875000
 21
187.100000
  0
LINE
  5
3a5
100
AcDbEntity
  8
0
370
    20
100
AcDbLine
 10
32.875000
 20
187.150000
 11
32.300000
 21
187.150000
  0
LINE
  5
3a8
100
AcDbEntity
  8
0
370
    20
100
AcDbLine
 10
34.150000
 20
187.100000
 11
36.050000
 21
187.100000
  0
LINE
  5
3ab
100
AcDbEntity
  8
0
370
    20
100
AcDbLine
 10
32.575000
 20
185.825000
 11
34.475000
 21
185.825000
  0
LINE
  5
3ae
100
AcDbEntity
  8
0
370
    20
100
AcDbLine
 10
35.750000
 20
185.825000
 11
37.650000
 21
185.825000
  0
LINE
  5
3b1
100
AcDbEntity
  8
0
370
    20
100
AcDbLine
 10
31.825000
 20
184.575000
 11
32.875000
 21
184.575000
  0
LINE
  5
3b4
100
AcDbEntity
  8
0
370
    20
100
AcDbLine
 10
34.150000
 20
184.575000
 11
36.050000
 21
184.575000
  0
LINE
  5
3b7
100
AcDbEntity
  8
0
370
    20
100
AcDbLine
 10
32.575000
 20
183.300000
 11
34.475000
 21
183.300000
  0
LINE
  5
3ba
100
AcDbEntity
  8
0
370
    20
100
AcDbLine
 10
35.750000
 20
183.300000
 11
37.650000
 21
183.300000
  0
LINE
  5
3bd
100
AcDbEntity
  8
0
370
    20
100
AcDbLine
 10
31.825000
 20
182.025000
 11
32.875000
 21
182.025000
  0
LINE
  5
3c0
100
AcDbEntity
  8
0
370
    20
100
AcDbLine
 10
34.150000
 20
182.025000
 11
36.050000
 21
182.025000
  0
LINE
  5
3c3
100
AcDbEntity
  8
0
370
    20
100
AcDbLine
 10
32.575000
 20
180.750000
 11
34.475000
 21
180.750000
  0
LINE
  5
3c6
100
AcDbEntity
  8
0
370
    20
100
AcDbLine
 10
35.750000
 20
180.750000
 11
37.650000
 21
180.750000
  0
LINE
  5
3c9
100
AcDbEntity
  8
0
370
    20
100
AcDbLine
 10
31.825000
 20
179.500000
 11
32.875000
 21
179.500000
  0
LINE
  5
3cc
100
AcDbEntity
  8
0
370
    20
100
AcDbLine
 10
34.150000
 20
179.500000
 11
36.050000
 21
179.500000
  0
LINE
  5
3cf
100
AcDbEntity
  8
0
370
    20
100
AcDbLine
 10
32.575000
 20
178.225000
 11
34.475000
 21
178.225000
  0
LINE
  5
3d2
100
AcDbEntity
  8
0
370
    20
100
AcDbLine
 10
35.750000
 20
178.225000
 11
37.650000
 21
178.225000
  0
LINE
  5
3d5
100
AcDbEntity
  8
0
370
    20
100
AcDbLine
 10
31.825000
 20
176.950000
 11
32.875000
 21
176.950000
  0
LINE
  5
3d8
100
AcDbEntity
  8
0
370
    20
100
AcDbLine
 10
34.150000
 20
176.950000
 11
36.050000
 21
176.950000
  0
LINE
  5
3db
100
AcDbEntity
  8
0
370
    20
100
AcDbLine
 10
32.575000
 20
175.675000
 11
34.475000
 21
175.675000
  0
LINE
  5
3de
100
AcDbEntity
  8
0
370
    20
100
AcDbLine
 10
35.750000
 20
175.675000
 11
37.650000
 21
175.675000
  0
LINE
  5
3e1
100
AcDbEntity
  8
0
370
    20
100
AcDbLine
 10
31.825000
 20
174.400000
 11
32.875000
 21
174.400000
  0
LINE
  5
3e4
100
AcDbEntity
  8
0
370
    20
100
AcDbLine
 10
34.150000
 20
174.400000
 11
36.050000
 21
174.400000
  0
LINE
  5
3e7
100
AcDbEntity
  8
0
370
    20
100
AcDbLine
 10
32.575000
 20
173.150000
 11
34.475000
 21
173.150000
  0
LINE
  5
3ea
100
AcDbEntity
  8
0
370
    20
100
AcDbLine
 10
35.750000
 20
173.150000
 11
37.650000
 21
173.150000
  0
LINE
  5
3ed
100
AcDbEntity
  8
0
370
    20
100
AcDbLine
 10
30.650000
 20
171.875000
 11
32.575000
 21
171.875000
  0
LINE
  5
3f0
100
AcDbEntity
  8
0
370
    20
100
AcDbLine
 10
33.825000
 20
171.875000
 11
35.750000
 21
171.875000
  0
LINE
  5
3f3
100
AcDbEntity
  8
0
370
    20
100
AcDbLine
 10
32.250000
 20
170.600000
 11
34.150000
 21
170.600000
  0
LINE
  5
3f6
100
AcDbEntity
  8
0
370
    20
100
AcDbLine
 10
35.425000
 20
170.600000
 11
37.325000
 21
170.600000
  0
LINE
  5
3f9
100
AcDbEntity
  8
0
370
    20
100
AcDbLine
 10
30.650000
 20
169.175000
 11
32.575000
 21
169.175000
  0
LINE
  5
3fc
100
AcDbEntity
  8
0
370
    20
100
AcDbLine
 10
33.825000
 20
169.175000
 11
35.750000
 21
169.175000
  0
LINE
  5
3ff
100
AcDbEntity
  8
0
370
    20
100
AcDbLine
 10
37.000000
 20
197.250000
 11
38.600000
 21
197.250000
  0
LINE
  5
402
100
AcDbEntity
  8
0
370
    20
100
AcDbLine
 10
37.000000
 20
194.725000
 11
38.600000
 21
194.725000
  0
LINE
  5
405
100
AcDbEntity
  8
0
370
    20
100
AcDbLine
 10
37.000000
 20
192.175000
 11
38.600000
 21
192.175000
  0
LINE
  5
408
100
AcDbEntity
  8
0
370
    20
100
AcDbLine
 10
37.000000
 20
189.650000
 11
38.600000
 21
189.650000
  0
LINE
  5
40b
100
AcDbEntity
  8
0
370
    20
100
AcDbLine
 10
37.000000
 20
187.100000
 11
38.600000
 21
187.100000
  0
LINE
  5
40e
100
AcDbEntity
  8
0
370
    20
100
AcDbLine
 10
37.000000
 20
184.575000
 11
38.600000
 21
184.575000
  0
LINE
  5
411
100
AcDbEntity
  8
0
370
    20
100
AcDbLine
 10
37.000000
 20
182.025000
 11
38.600000
 21
182.025000
  0
LINE
  5
414
100
AcDbEntity
  8
0
370
    20
100
AcDbLine
 10
37.000000
 20
179.500000
 11
38.600000
 21
179.500000
  0
LINE
  5
417
100
AcDbEntity
  8
0
370
    20
100
AcDbLine
 10
37.000000
 20
176.950000
 11
38.600000
 21
176.950000
  0
LINE
  5
41a
100
AcDbEntity
  8
0
370
    20
100
AcDbLine
 10
37.000000
 20
174.400000
 11
38.600000
 21
174.400000
  0
LINE
  5
41d
100
AcDbEntity
  8
0
370
    20
100
AcDbLine
 10
36.700000
 20
171.875000
 11
38.275000
 21
171.875000
  0
LINE
  5
420
100
AcDbEntity
  8
0
370
    20
100
AcDbLine
 10
36.700000
 20
169.175000
 11
38.275000
 21
169.175000
  0
LINE
  5
423
100
AcDbEntity
  8
0
370
    20
100
AcDbLine
 10
32.250000
 20
199.800000
 11
38.600000
 21
199.800000
  0
LINE
  5
426
100
AcDbEntity
  8
0
370
    20
100
AcDbLine
 10
29.075000
 20
170.600000
 11
30.975000
 21
170.600000
  0
LINE
  5
429
100
AcDbEntity
  8
0
370
    20
100
AcDbLine
 10
29.075000
 20
173.150000
 11
30.975000
 21
173.150000
  0
LINE
  5
42c
100
AcDbEntity
  8
0
370
    40
100
AcDbLine
 10
28.300000
 20
196.625000
 11
28.300000
 21
174.100000
  0
LINE
  5
42f
100
AcDbEntity
  8
0
370
    40
100
AcDbLine
 10
31.825000
 20
174.100000
 11
31.825000
 21
196.625000
  0
LINE
  5
432
100
AcDbEntity
  8
0
370
    40
100
AcDbLine
 10
31.825000
 20
174.850000
 11
31.825000
 21
196.625000
  0
LINE
  5
435
100
AcDbEntity
  8
0
370
    40
100
AcDbLine
 10
31.825000
 20
175.250000
 11
31.825000
 21
196.625000
  0
LINE
  5
438
100
AcDbEntity
  8
0
370
    20
100
AcDbLine
 10
31.750000
 20
196.400000
 11
28.425000
 21
196.400000
  0
POINT
  5
43b
100
AcDbEntity
  8
0
100
AcDbPoint
 10
37.950000
 20
215.975000
  0
POINT
  5
43e
100
AcDbEntity
  8
0
100
AcDbPoint
 10
36.050000
 20
215.650000
  0
POINT
  5
441
100
AcDbEntity
  8
0
100
AcDbPoint
 10
33.825000
 20
215.650000
  0
POINT
  5
444
100
AcDbEntity
  8
0
100
AcDbPoint
 10
37.950000
 20
214.375000
  0
POINT
  5
447
100
AcDbEntity
  8
0
100
AcDbPoint
 10
36.375000
 20
213.750000
  0
POINT
  5
44a
100
AcDbEntity
  8
0
100
AcDbPoint
 10
34.475000
 20
213.750000
  0
POINT
  5
44d
100
AcDbEntity
  8
0
100
AcDbPoint
 10
37.650000
 20
213.125000
  0
POINT
  5
450
100
AcDbEntity
  8
0
100
AcDbPoint
 10
33.200000
 20
210.900000
  0
POINT
  5
453
100
AcDbEntity
  8
0
100
AcDbPoint
 10
35.100000
 20
210.250000
  0
POINT
  5
456
100
AcDbEntity
  8
0
100
AcDbPoint
 10
37.950000
 20
210.250000
  0
POINT
  5
459
100
AcDbEntity
  8
0
100
AcDbPoint
 10
38.275000
 20
207.725000
  0
POINT
  5
45c
100
AcDbEntity
  8
0
100
AcDbPoint
 10
36.700000
 20
209.000000
  0
POINT
  5
45f
100
AcDbEntity
  8
0
100
AcDbPoint
 10
33.825000
 20
209.000000
  0
POINT
  5
462
100
AcDbEntity
  8
0
100
AcDbPoint
 10
33.825000
 20
206.450000
  0
POINT
  5
465
100
AcDbEntity
  8
0
100
AcDbPoint
 10
35.425000
 20
208.050000
  0
POINT
  5
468
100
AcDbEntity
  8
0
100
AcDbPoint
 10
37.000000
 20
207.100000
  0
POINT
  5
46b
100
AcDbEntity
  8
0
100
AcDbPoint
 10
35.425000
 20
205.500000
  0
POINT
  5
46e
100
AcDbEntity
  8
0
100
AcDbPoint
 10
38.275000
 20
205.500000
  0
POINT
  5
471
100
AcDbEntity
  8
0
100
AcDbPoint
 10
33.525000
 20
203.925000
  0
POINT
  5
474
100
AcDbEntity
  8
0
100
AcDbPoint
 10
36.375000
 20
204.225000
  0
POINT
  5
477
100
AcDbEntity
  8
0
100
AcDbPoint
 10
34.775000
 20
202.975000
  0
POINT
  5
47a
100
AcDbEntity
  8
0
100
AcDbPoint
 10
37.325000
 20
202.975000
  0
POINT
  5
47d
100
AcDbEntity
  8
0
100
AcDbPoint
 10
34.475000
 20
201.700000
  0
POINT
  5
480
100
AcDbEntity
  8
0
100
AcDbPoint
 10
36.050000
 20
202.025000
  0
POINT
  5
483
100
AcDbEntity
  8
0
100
AcDbPoint
 10
37.000000
 20
200.750000
  0
POINT
  5
486
100
AcDbEntity
  8
0
100
AcDbPoint
 10
33.825000
 20
200.425000
  0
LINE
  5
489
100
AcDbEntity
  8
0
370
    20
100
AcDbLine
 10
32.250000
 20
224.850000
 11
44.625000
 21
224.850000
  0
LINE
  5
48c
100
AcDbEntity
  8
0
370
    20
100
AcDbLine
 10
32.575000
 20
223.275000
 11
42.400000
 21
223.275000
  0
LINE
  5
48f
100
AcDbEntity
  8
0
370
    20
100
AcDbLine
 10
32.250000
 20
221.675000
 11
39.850000
 21
221.675000
  0
LINE
  5
492
100
AcDbEntity
  8
0
370
    20
100
AcDbLine
 10
32.250000
 20
220.100000
 11
38.275000
 21
220.100000
  0
LINE
  5
495
100
AcDbEntity
  8
0
370
    20
100
AcDbLine
 10
32.250000
 20
218.500000
 11
38.275000
 21
218.500000
  0
LINE
  5
498
100
AcDbEntity
  8
0
370
    20
100
AcDbLine
 10
32.250000
 20
216.925000
 11
38.275000
 21
216.925000
  0
LWPOLYLINE
  5
49b
100
AcDbEntity
  8
0
100
AcDbPolyline
 90
     3
 70
     0
 43
0.200000
 10
43.350000
 20
220.725000
 10
32.250000
 20
217.550000
 10
35.100000
 20
219.150000
  0
LWPOLYLINE
  5
4a4
100
AcDbEntity
  8
0
100
AcDbPolyline
 90
     3
 70
     0
 43
0.200000
 10
41.450000
 20
207.725000
 10
31.100000
 20
206.175000
 10
32.875000
 20
207.100000
  0
LWPOLYLINE
  5
4ad
100
AcDbEntity
  8
0
100
AcDbPolyline
 90
     3
 70
     0
 43
0.200000
 10
41.125000
 20
200.750000
 10
32.250000
 20
201.375000
 10
35.100000
 20
201.700000
  0
LWPOLYLINE
  5
4b6
100
AcDbEntity
  8
0
100
AcDbPolyline
 90
     3
 70
     0
 43
0.200000
 10
41.425000
 20
187.425000
 10
32.225000
 20
184.875000
 10
34.775000
 20
186.475000
  0
LWPOLYLINE
  5
4bf
100
AcDbEntity
  8
0
100
AcDbPolyline
 90
     3
 70
     0
 43
0.200000
 10
21.400000
 20
273.825000
 10
24.575000
 20
272.575000
 10
23.300000
 20
273.825000
  0
LINE
  5
4c8
100
AcDbEntity
  8
0
370
    20
100
AcDbLine
 10
28.700000
 20
185.750000
 11
31.450000
 21
185.750000
  0
LINE
  5
4cb
100
AcDbEntity
  8
0
370
    20
100
AcDbLine
 10
31.400000
 20
174.025000
 11
31.400000
 21
185.750000
  0
LINE
  5
4ce
100
AcDbEntity
  8
0
370
    20
100
AcDbLine
 10
31.375000
 20
172.900000
 11
31.375000
 21
185.750000
  0
LINE
  5
4d1
100
AcDbEntity
  8
0
370
    20
100
AcDbLine
 10
28.750000
 20
174.025000
 11
28.750000
 21
185.750000
  0
LINE
  5
4d4
100
AcDbEntity
  8
0
370
    20
100
AcDbLine
 10
28.675000
 20
172.900000
 11
28.675000
 21
185.750000
  0
HATCH
  5
4d7
330
F6
100
AcDbEntity
  8
0
100
AcDbHatch
 10
0.0
 20
0.0
 30
0.0
210
0.0
220
0.0
230
1.0
  2
SOLID
 70
     1
 71
     0
 91
     1
 92
     7
 72
     0
 73
     1
 93
     3
 10
31.625000
 20
172.825000
 10
31.625000
 20
174.050000
 10
32.025000
 20
174.050000
 97
     1
330
4da
 75
     0
 76
     1
 47
0.651316
 98
     1
 10
0.0
 20
0.0
  0
LWPOLYLINE
  5
4da
330
F6
100
AcDbEntity
  8
0
100
AcDbPolyline
 90
     3
 70
     1
 10
31.625000
 20
172.825000
 10
31.625000
 20
174.050000
 10
32.025000
 20
174.050000
  0
HATCH
  5
4e3
330
F6
100
AcDbEntity
  8
0
100
AcDbHatch
 10
0.0
 20
0.0
 30
0.0
210
0.0
220
0.0
230
1.0
  2
SOLID
 70
     1
 71
     0
 91
     1
 92
     7
 72
     0
 73
     1
 93
     3
 10
28.475000
 20
172.850000
 10
28.475000
 20
174.075000
 10
28.075000
 20
174.075000
 97
     1
330
4e6
 75
     0
 76
     1
 47
0.651316
 98
     1
 10
0.0
 20
0.0
  0
LWPOLYLINE
  5
4e6
330
F6
100
AcDbEntity
  8
0
100
AcDbPolyline
 90
     3
 70
     1
 10
28.475000
 20
172.850000
 10
28.475000
 20
174.075000
 10
28.075000
 20
174.075000
  0
LINE
  5
4ef
100
AcDbEntity
  8
0
370
    20
100
AcDbLine
 10
29.400000
 20
174.325000
 11
28.800000
 21
174.325000
  0
LINE
  5
4f2
100
AcDbEntity
  8
0
370
    20
100
AcDbLine
 10
30.650000
 20
174.325000
 11
31.400000
 21
174.325000
  0
LINE
  5
4f5
100
AcDbEntity
  8
0
370
    20
100
AcDbLine
 10
29.400000
 20
176.975000
 11
28.800000
 21
176.975000
  0
LINE
  5
4f8
100
AcDbEntity
  8
0
370
    20
100
AcDbLine
 10
30.650000
 20
176.975000
 11
31.400000
 21
176.975000
  0
LINE
  5
4fb
100
AcDbEntity
  8
0
370
    20
100
AcDbLine
 10
29.400000
 20
179.450000
 11
28.800000
 21
179.450000
  0
LINE
  5
4fe
100
AcDbEntity
  8
0
370
    20
100
AcDbLine
 10
30.650000
 20
179.450000
 11
31.400000
 21
179.450000
  0
LINE
  5
501
100
AcDbEntity
  8
0
370
    20
100
AcDbLine
 10
29.400000
 20
181.975000
 11
28.800000
 21
181.975000
  0
LINE
  5
504
100
AcDbEntity
  8
0
370
    20
100
AcDbLine
 10
30.650000
 20
181.975000
 11
31.400000
 21
181.975000
  0
LINE
  5
507
100
AcDbEntity
  8
0
370
    20
100
AcDbLine
 10
29.400000
 20
184.575000
 11
28.800000
 21
184.575000
  0
LINE
  5
50a
100
AcDbEntity
  8
0
370
    20
100
AcDbLine
 10
30.650000
 20
184.575000
 11
31.400000
 21
184.575000
  0
LINE
  5
50d
100
AcDbEntity
  8
0
370
    20
100
AcDbLine
 10
29.075000
 20
175.725000
 11
30.975000
 21
175.725000
  0
LINE
  5
510
100
AcDbEntity
  8
0
370
    20
100
AcDbLine
 10
29.075000
 20
178.275000
 11
30.975000
 21
178.275000
  0
LINE
  5
513
100
AcDbEntity
  8
0
370
    20
100
AcDbLine
 10
29.075000
 20
180.725000
 11
30.975000
 21
180.725000
  0
LINE
  5
516
100
AcDbEntity
  8
0
370
    20
100
AcDbLine
 10
29.075000
 20
183.275000
 11
30.975000
 21
183.275000
  0
LINE
  5
519
100
AcDbEntity
  8
0
370
     0
100
AcDbLine
 10
27.850000
 20
185.700000
 11
28.175000
 21
185.700000
  0
LINE
  5
51c
100
AcDbEntity
  8
0
370
    20
100
AcDbLine
 10
27.900000
 20
185.675000
 11
28.250000
 21
185.675000
  0
LINE
  5
51f
100
AcDbEntity
  8
0
370
    20
100
AcDbLine
 10
31.925000
 20
185.775000
 11
32.350000
 21
185.775000
  0
LWPOLYLINE
  5
522
100
AcDbEntity
  8
0
  6
DASHED
 62
     7
100
AcDbPolyline
 90
     3
 70
     0
 43
0.200000
 10
32.100000
 20
228.025000
 10
32.100000
 20
235.000000
 10
28.600000
 20
235.000000
  0
LINE
  5
52b
100
AcDbEntity
  8
0
  6
DASHED
 62
     7
370
    20
100
AcDbLine
 10
28.600000
 20
240.075000
 11
39.700000
 21
240.075000
  0
LINE
  5
52e
100
AcDbEntity
  8
0
  6
DASHED
 62
     7
370
    20
100
AcDbLine
 10
28.400000
 20
235.000000
 11
28.600000
 21
240.075000
  0
LINE
  5
531
100
AcDbEntity
  8
0
  6
DASHED
 62
     7
370
    20
100
AcDbLine
 10
28.400000
 20
240.075000
 11
28.600000
 21
240.075000
  0
LINE
  5
534
100
AcDbEntity
  8
0
  6
DASHED
 62
     7
370
    20
100
AcDbLine
 10
39.700000
 20
240.075000
 11
39.700000
 21
233.750000
  0
LINE
  5
537
100
AcDbEntity
  8
0
370
    40
100
AcDbLine
 10
26.575000
 20
242.350000
 11
26.575000
 21
232.650000
  0
LWPOLYLINE
  5
53a
100
AcDbEntity
  8
0
100
AcDbPolyline
 90
     3
 70
     0
 43
0.400000
 10
25.425000
 20
235.425000
 10
26.575000
 20
232.650000
 10
27.700000
 20
235.425000
  0
MTEXT
  5
543
100
AcDbEntity
  8
0
100
AcDbMText
 10
13.475000
 20
240.150000
 40
1.875000
 41
18.000000
 71
     1
 72
     5
  1
\fＭＳ ゴシック|b0|i0|c128|p49;\H1.875;\T1.4384;押し込\T1.7562;み
 44
1.420909
 73
     1
  7
BIGFONT
  0
MTEXT
  5
546
100
AcDbEntity
  8
0
100
AcDbMText
 10
15.975000
 20
243.250000
 40
1.875000
 41
9.000000
 71
     1
 72
     5
  1
\fＭＳ ゴシック|b0|i0|c128|p49;\H1.875;\T1.4384;連\T1.7562;続
 44
1.420909
 73
     1
  7
BIGFONT
  0
LINE
  5
549
100
AcDbEntity
  8
0
370
    40
100
AcDbLine
 10
26.275000
 20
185.775000
 11
26.275000
 21
176.075000
  0
LWPOLYLINE
  5
54c
100
AcDbEntity
  8
0
100
AcDbPolyline
 90
     3
 70
     0
 43
0.400000
 10
25.125000
 20
178.850000
 10
26.275000
 20
176.075000
 10
27.400000
 20
178.850000
  0
LWPOLYLINE
  5
555
100
AcDbEntity
  8
0
100
AcDbPolyline
 90
     3
 70
     0
 43
0.200000
 10
41.575000
 20
180.250000
 10
30.825000
 20
178.000000
 10
33.375000
 20
179.600000
  0
MTEXT
  5
55e
100
AcDbEntity
  8
0
100
AcDbMText
 10
42.550000
 20
182.575000
 40
1.875000
 41
31.500000
 71
     1
 72
     5
  1
\fＭＳ ゴシック|b0|i0|c128|p49;\H1.875;\T1.4384;不撹乱採取試\T1.7562;料
 44
1.420909
 73
     1
  7
BIGFONT
  0
LINE
  5
561
100
AcDbEntity
  8
0
  6
DASHDOT
 62
     7
370
    20
100
AcDbLine
 10
95.625000
 20
210.325000
 11
95.625000
 21
167.400000
  0
LINE
  5
564
100
AcDbEntity
  8
0
  6
DASHDOT
 62
     7
370
    20
100
AcDbLine
 10
95.625000
 20
211.725000
 11
95.625000
 21
277.950000
  0
MTEXT
  5
567
100
AcDbEntity
  8
0
100
AcDbMText
 10
79.800000
 20
280.775000
 40
1.856250
 41
49.005000
 71
     1
 72
     5
  1
\fＭＳ ゴシック|b1|i0|c128|p49;\T1.8854;シンウォールサンプラ\T1.0153;ー
 44
1.226497
 73
     1
  7
BIGFONT
  0
LINE
  5
56a
100
AcDbEntity
  8
0
370
    20
100
AcDbLine
 10
89.075000
 20
211.025000
 11
89.075000
 21
254.550000
  0
LINE
  5
56d
100
AcDbEntity
  8
0
370
    20
100
AcDbLine
 10
89.075000
 20
209.475000
 11
89.075000
 21
170.325000
  0
LINE
  5
570
100
AcDbEntity
  8
0
370
    20
100
AcDbLine
 10
89.075000
 20
242.975000
 11
94.525000
 21
242.975000
  0
LINE
  5
573
100
AcDbEntity
  8
0
370
    20
100
AcDbLine
 10
88.275000
 20
264.200000
 11
88.275000
 21
256.575000
  0
LINE
  5
576
100
AcDbEntity
  8
0
370
    20
100
AcDbLine
 10
89.075000
 20
254.550000
 11
88.350000
 21
254.550000
  0
LINE
  5
579
100
AcDbEntity
  8
0
370
    20
100
AcDbLine
 10
91.800000
 20
244.275000
 11
90.475000
 21
242.950000
  0
LINE
  5
57c
100
AcDbEntity
  8
0
370
    20
100
AcDbLine
 10
94.525000
 20
244.300000
 11
91.800000
 21
244.300000
  0
LINE
  5
57f
100
AcDbEntity
  8
0
370
    20
100
AcDbLine
 10
88.275000
 20
173.550000
 11
89.075000
 21
170.175000
  0
LINE
  5
582
100
AcDbEntity
  8
0
370
    20
100
AcDbLine
 10
88.275000
 20
254.550000
 11
88.275000
 21
211.375000
  0
LINE
  5
585
100
AcDbEntity
  8
0
370
    20
100
AcDbLine
 10
88.275000
 20
209.900000
 11
88.275000
 21
173.550000
  0
LINE
  5
588
100
AcDbEntity
  8
0
370
    20
100
AcDbLine
 10
88.275000
 20
256.625000
 11
88.275000
 21
211.375000
  0
LINE
  5
58b
100
AcDbEntity
  8
0
370
    20
100
AcDbLine
 10
88.275000
 20
209.900000
 11
88.275000
 21
173.550000
  0
LINE
  5
58e
100
AcDbEntity
  8
0
370
    20
100
AcDbLine
 10
102.175000
 20
254.550000
 11
102.175000
 21
211.375000
  0
LINE
  5
591
100
AcDbEntity
  8
0
370
    20
100
AcDbLine
 10
102.175000
 20
209.900000
 11
102.175000
 21
170.325000
  0
LINE
  5
594
100
AcDbEntity
  8
0
370
    20
100
AcDbLine
 10
102.175000
 20
254.550000
 11
102.900000
 21
254.550000
  0
LINE
  5
597
100
AcDbEntity
  8
0
370
    20
100
AcDbLine
 10
102.975000
 20
173.550000
 11
102.175000
 21
170.175000
  0
LINE
  5
59a
100
AcDbEntity
  8
0
370
    20
100
AcDbLine
 10
103.000000
 20
211.700000
 11
102.975000
 21
254.550000
  0
LINE
  5
59d
100
AcDbEntity
  8
0
370
    20
100
AcDbLine
 10
102.975000
 20
209.900000
 11
102.975000
 21
173.550000
  0
LINE
  5
5a0
100
AcDbEntity
  8
0
370
    20
100
AcDbLine
 10
102.975000
 20
210.275000
 11
102.975000
 21
173.550000
  0
MTEXT
  5
5a3
100
AcDbEntity
  8
0
100
AcDbMText
 10
117.075000
 20
230.250000
 40
1.875000
 41
45.000000
 71
     1
 72
     5
  1
\fＭＳ ゴシック|b0|i0|c128|p49;\H1.875;\T1.4384;サンプリングチュー\T1.7562;ブ
 44
1.420909
 73
     1
  7
BIGFONT
  0
LWPOLYLINE
  5
5a6
100
AcDbEntity
  8
0
100
AcDbPolyline
 90
     3
 70
     0
 43
0.200000
 10
115.950000
 20
228.300000
 10
102.975000
 20
226.100000
 10
105.625000
 20
227.525000
  0
LINE
  5
5af
100
AcDbEntity
  8
0
370
    20
100
AcDbLine
 10
115.325000
 20
254.550000
 11
103.450000
 21
254.550000
  0
LINE
  5
5b2
100
AcDbEntity
  8
0
370
    20
100
AcDbLine
 10
112.025000
 20
170.200000
 11
112.025000
 21
254.700000
  0
LWPOLYLINE
  5
5b5
100
AcDbEntity
  8
0
100
AcDbPolyline
 90
     3
 70
     0
 43
0.200000
 10
111.225000
 20
173.100000
 10
112.025000
 20
170.200000
 10
112.800000
 20
173.100000
  0
LWPOLYLINE
  5
5be
100
AcDbEntity
  8
0
100
AcDbPolyline
 90
     3
 70
     0
 43
0.200000
 10
112.800000
 20
251.825000
 10
112.025000
 20
254.700000
 10
111.225000
 20
251.825000
  0
LINE
  5
5c7
100
AcDbEntity
  8
0
370
    20
100
AcDbLine
 10
114.525000
 20
170.175000
 11
102.825000
 21
170.175000
  0
MTEXT
  5
5ca
100
AcDbEntity
  8
0
100
AcDbMText
 10
107.250000
 20
201.425000
 40
1.875000
 41
27.000000
 71
     1
 72
     5
  1
\fＭＳ ゴシック|b0|i0|c128|p49;\H1.875;\T1.4384;標準長さ１\T1.1617;ｍ
 44
1.420909
 73
     1
 11
0.0000000000000000
 21
1.000000
 31
0.000000
  7
BIGFONT
  0
ELLIPSE
  5
5cd
100
AcDbEntity
  8
0
370
    20
100
AcDbEllipse
 10
30.000000
 20
271.525000
 30
0.000000
 11
0.000000000000000
 21
0.625000
 31
0.000000
210
0.000000
220
0.000000
230
1.000000
 40
0.760000
 41
3.141593
 42
1.567728
  0
LINE
  5
5d0
100
AcDbEntity
  8
0
370
    20
100
AcDbLine
 10
29.925000
 20
277.100000
 11
29.925000
 21
275.775000
  0
ELLIPSE
  5
5d3
100
AcDbEntity
  8
0
370
    20
100
AcDbEllipse
 10
30.000000
 20
275.575000
 30
0.000000
 11
0.000000000000000
 21
0.625000
 31
0.000000
210
0.000000
220
0.000000
230
1.000000
 40
0.760000
 41
0.000000
 42
6.283185
  0
LINE
  5
5d6
100
AcDbEntity
  8
0
370
    20
100
AcDbLine
 10
29.925000
 20
275.125000
 11
29.925000
 21
273.800000
  0
ELLIPSE
  5
5d9
100
AcDbEntity
  8
0
370
    20
100
AcDbEllipse
 10
30.000000
 20
273.550000
 30
0.000000
 11
0.000000000000000
 21
0.625000
 31
0.000000
210
0.000000
220
0.000000
230
1.000000
 40
0.760000
 41
0.000000
 42
6.283185
  0
LINE
  5
5dc
100
AcDbEntity
  8
0
370
    20
100
AcDbLine
 10
29.925000
 20
273.100000
 11
29.925000
 21
271.775000
  0
ELLIPSE
  5
5df
100
AcDbEntity
  8
0
370
    20
100
AcDbEllipse
 10
30.000000
 20
265.275000
 30
0.000000
 11
0.000000000000000
 21
0.625000
 31
0.000000
210
0.000000
220
0.000000
230
1.000000
 40
0.760000
 41
0.000000
 42
4.709321
  0
ELLIPSE
  5
5e2
100
AcDbEntity
  8
0
370
    20
100
AcDbEllipse
 10
29.975000
 20
267.000000
 30
0.000000
 11
0.000000000000000
 21
0.400000
 31
0.000000
210
0.000000
220
0.000000
230
1.000000
 40
0.875000
 41
1.567728
 42
4.709321
  0
ELLIPSE
  5
5e5
100
AcDbEntity
  8
0
370
    20
100
AcDbEllipse
 10
29.975000
 20
269.700000
 30
0.000000
 11
0.000000000000000
 21
0.400000
 31
0.000000
210
0.000000
220
0.000000
230
1.000000
 40
0.875000
 41
4.709321
 42
1.567728
  0
LINE
  5
5e8
100
AcDbEntity
  8
0
370
    20
100
AcDbLine
 10
30.325000
 20
267.000000
 11
30.325000
 21
269.700000
  0
LINE
  5
5eb
100
AcDbEntity
  8
0
370
    20
100
AcDbLine
 10
29.625000
 20
267.000000
 11
29.625000
 21
269.700000
  0
LINE
  5
5ee
100
AcDbEntity
  8
0
370
    20
100
AcDbLine
 10
29.950000
 20
265.900000
 11
29.950000
 21
266.850000
  0
LINE
  5
5f1
100
AcDbEntity
  8
0
370
    20
100
AcDbLine
 10
29.950000
 20
269.900000
 11
29.950000
 21
271.000000
  0
LINE
  5
5f4
100
AcDbEntity
  8
0
370
    40
100
AcDbLine
 10
30.000000
 20
263.875000
 11
30.000000
 21
264.975000
  0
LINE
  5
5f7
100
AcDbEntity
  8
0
370
    40
100
AcDbLine
 10
31.325000
 20
186.150000
 11
28.800000
 21
186.150000
  0
MTEXT
  5
5fa
100
AcDbEntity
  8
0
100
AcDbMText
 10
36.850000
 20
278.900000
 40
1.875000
 41
18.000000
 71
     1
 72
     5
  1
\fＭＳ ゴシック|b0|i0|c128|p49;\H1.875;\T1.4384;チェー\T1.7562;ン
 44
1.420909
 73
     1
  7
BIGFONT
  0
MTEXT
  5
5fd
100
AcDbEntity
  8
0
100
AcDbMText
 10
37.750000
 20
273.500000
 40
1.875000
 41
31.500000
 71
     1
 72
     5
  1
\fＭＳ ゴシック|b0|i0|c128|p49;\H1.875;\T1.4384;ターンバック\T1.7562;ル
 44
1.420909
 73
     1
  7
BIGFONT
  0
MTEXT
  5
600
100
AcDbEntity
  8
0
100
AcDbMText
 10
40.300000
 20
268.350000
 40
1.875000
 41
18.000000
 71
     1
 72
     5
  1
\fＭＳ ゴシック|b0|i0|c128|p49;\H1.875;\T1.4384;スイベ\T1.7562;ル
 44
1.420909
 73
     1
  7
BIGFONT
  0
MTEXT
  5
603
100
AcDbEntity
  8
0
100
AcDbMText
 10
38.500000
 20
256.350000
 40
1.875000
 41
31.500000
 71
     1
 72
     5
  1
\fＭＳ ゴシック|b0|i0|c128|p49;\H1.875;\T1.4384;ピストンロッ\T1.7562;ド
 44
1.420909
 73
     1
  7
BIGFONT
  0
MTEXT
  5
606
100
AcDbEntity
  8
0
100
AcDbMText
 10
42.625000
 20
195.275000
 40
1.875000
 41
18.000000
 71
     1
 72
     5
  1
\fＭＳ ゴシック|b0|i0|c128|p49;\H1.875;\T1.4384;ピスト\T1.7562;ン
 44
1.420909
 73
     1
  7
BIGFONT
  0
MTEXT
  5
609
100
AcDbEntity
  8
0
100
AcDbMText
 10
81.250000
 20
266.425000
 40
2.681250
 41
70.785000
 71
     1
 72
     5
  1
\f@ＭＳ ゴシック|b0|i0|c128|p49;\T1.4384;（ａ）固定ピストン方式
 44
1.332715
 73
     1
 11
-0.000000000000000
 21
-1.000000
 31
0.000000
  7
BIGFONT
  0
LINE
  5
60c
100
AcDbEntity
  8
0
370
    20
100
AcDbLine
 10
30.000000
 20
263.875000
 11
30.000000
 21
213.275000
  0
LINE
  5
60f
100
AcDbEntity
  8
0
370
    20
100
AcDbLine
 10
30.000000
 20
212.000000
 11
30.000000
 21
186.050000
  0
LINE
  5
612
100
AcDbEntity
  8
0
370
    20
100
AcDbLine
 10
29.400000
 20
245.425000
 11
29.400000
 21
213.500000
  0
LINE
  5
615
100
AcDbEntity
  8
0
370
    20
100
AcDbLine
 10
29.425000
 20
212.150000
 11
29.400000
 21
209.650000
  0
LINE
  5
618
100
AcDbEntity
  8
0
370
    20
100
AcDbLine
 10
30.650000
 20
245.425000
 11
30.650000
 21
212.975000
  0
LINE
  5
61b
100
AcDbEntity
  8
0
370
    20
100
AcDbLine
 10
30.650000
 20
211.725000
 11
30.650000
 21
209.025000
  0
LWPOLYLINE
  5
61e
100
AcDbEntity
  8
0
100
AcDbPolyline
 90
     3
 70
     0
 43
0.200000
 10
36.100000
 20
276.075000
 10
30.475000
 20
274.200000
 10
32.025000
 20
275.450000
  0
LWPOLYLINE
  5
627
100
AcDbEntity
  8
0
100
AcDbPolyline
 90
     3
 70
     0
 43
0.200000
 10
37.200000
 20
271.075000
 10
30.475000
 20
268.250000
 10
32.500000
 20
269.650000
  0
LWPOLYLINE
  5
630
100
AcDbEntity
  8
0
100
AcDbPolyline
 90
     3
 70
     0
 43
0.200000
 10
39.700000
 20
265.900000
 10
30.475000
 20
264.350000
 10
32.975000
 20
265.275000
  0
LWPOLYLINE
  5
639
100
AcDbEntity
  8
0
100
AcDbPolyline
 90
     3
 70
     0
 43
0.200000
 10
37.825000
 20
253.725000
 10
30.000000
 20
251.525000
 10
32.650000
 20
252.950000
  0
LWPOLYLINE
  5
642
100
AcDbEntity
  8
0
100
AcDbPolyline
 90
     3
 70
     0
 43
0.200000
 10
40.950000
 20
192.875000
 10
30.325000
 20
186.300000
 10
31.325000
 20
187.550000
  0
LINE
  5
64b
100
AcDbEntity
  8
0
370
    20
100
AcDbLine
 10
94.525000
 20
176.150000
 11
94.525000
 21
209.900000
  0
LINE
  5
64e
100
AcDbEntity
  8
0
370
    20
100
AcDbLine
 10
94.525000
 20
211.375000
 11
94.525000
 21
277.475000
  0
LWPOLYLINE
  5
651
100
AcDbEntity
  8
0
100
AcDbPolyline
 90
    15
 70
     0
 43
0.200000
 10
93.750000
 20
274.750000
 10
92.700000
 20
274.750000
 10
92.700000
 20
274.450000
 10
93.125000
 20
274.450000
 10
93.125000
 20
274.125000
 10
92.650000
 20
274.125000
 10
92.650000
 20
273.825000
 10
93.175000
 20
273.825000
 10
93.175000
 20
273.500000
 10
92.650000
 20
273.500000
 10
92.650000
 20
273.150000
 10
93.125000
 20
273.150000
 10
93.125000
 20
272.850000
 10
92.225000
 20
272.850000
 10
92.050000
 20
272.875000
  0
LWPOLYLINE
  5
672
100
AcDbEntity
  8
0
100
AcDbPolyline
 90
    15
 70
     0
 43
0.200000
 10
93.750000
 20
268.650000
 10
92.775000
 20
268.650000
 10
92.775000
 20
268.950000
 10
93.175000
 20
268.950000
 10
93.175000
 20
269.275000
 10
92.725000
 20
269.275000
 10
92.725000
 20
269.575000
 10
93.225000
 20
269.575000
 10
93.225000
 20
269.900000
 10
92.725000
 20
269.900000
 10
92.725000
 20
270.250000
 10
93.175000
 20
270.250000
 10
93.175000
 20
270.550000
 10
92.325000
 20
270.550000
 10
92.150000
 20
270.525000
  0
LWPOLYLINE
  5
693
100
AcDbEntity
  8
0
100
AcDbPolyline
 90
     3
 70
     0
 43
0.200000
 10
92.375000
 20
270.550000
 10
91.325000
 20
270.550000
 10
88.275000
 20
264.150000
  0
LWPOLYLINE
  5
69c
100
AcDbEntity
  8
0
100
AcDbPolyline
 90
     5
 70
     0
 43
0.200000
 10
93.750000
 20
267.075000
 10
93.000000
 20
267.075000
 10
93.000000
 20
265.950000
 10
93.000000
 20
265.525000
 10
91.925000
 20
265.525000
  0
LINE
  5
6a9
100
AcDbEntity
  8
0
370
    20
100
AcDbLine
 10
88.275000
 20
256.925000
 11
91.950000
 21
256.925000
  0
LINE
  5
6ac
100
AcDbEntity
  8
0
370
    20
100
AcDbLine
 10
88.275000
 20
256.300000
 11
92.000000
 21
256.300000
  0
LWPOLYLINE
  5
6af
100
AcDbEntity
  8
0
100
AcDbPolyline
 90
     4
 70
     0
 43
0.200000
 10
93.825000
 20
268.575000
 10
94.300000
 20
268.575000
 10
94.300000
 20
267.075000
 10
93.750000
 20
267.075000
  0
LINE
  5
6ba
100
AcDbEntity
  8
0
370
    20
100
AcDbLine
 10
93.750000
 20
277.475000
 11
93.750000
 21
268.650000
  0
LINE
  5
6bd
100
AcDbEntity
  8
0
370
    20
100
AcDbLine
 10
91.950000
 20
270.500000
 11
91.950000
 21
277.475000
  0
LWPOLYLINE
  5
6c0
100
AcDbEntity
  8
0
100
AcDbPolyline
 90
    12
 70
     0
 43
0.200000
 10
90.150000
 20
263.450000
 10
90.150000
 20
263.000000
 10
90.625000
 20
263.000000
 10
90.625000
 20
262.600000
 10
90.150000
 20
262.600000
 10
90.150000
 20
262.175000
 10
90.625000
 20
262.175000
 10
90.625000
 20
261.750000
 10
90.150000
 20
261.750000
 10
90.150000
 20
261.300000
 10
90.625000
 20
261.300000
 10
90.625000
 20
261.275000
  0
LINE
  5
6db
100
AcDbEntity
  8
0
370
    20
100
AcDbLine
 10
94.500000
 20
257.425000
 11
91.950000
 21
257.425000
  0
LINE
  5
6de
100
AcDbEntity
  8
0
370
    20
100
AcDbLine
 10
91.950000
 20
244.350000
 11
91.950000
 21
257.425000
  0
LINE
  5
6e1
100
AcDbEntity
  8
0
370
    20
100
AcDbLine
 10
91.950000
 20
263.325000
 11
91.950000
 21
265.525000
  0
LINE
  5
6e4
100
AcDbEntity
  8
0
370
    20
100
AcDbLine
 10
102.175000
 20
242.975000
 11
96.725000
 21
242.975000
  0
LINE
  5
6e7
100
AcDbEntity
  8
0
370
    20
100
AcDbLine
 10
102.175000
 20
254.550000
 11
102.900000
 21
254.550000
  0
LINE
  5
6ea
100
AcDbEntity
  8
0
370
    20
100
AcDbLine
 10
99.450000
 20
244.275000
 11
100.775000
 21
242.950000
  0
LINE
  5
6ed
100
AcDbEntity
  8
0
370
    20
100
AcDbLine
 10
96.725000
 20
244.300000
 11
99.450000
 21
244.300000
  0
LWPOLYLINE
  5
6f0
100
AcDbEntity
  8
0
100
AcDbPolyline
 90
    15
 70
     0
 43
0.200000
 10
97.500000
 20
274.750000
 10
98.550000
 20
274.750000
 10
98.550000
 20
274.450000
 10
98.125000
 20
274.450000
 10
98.125000
 20
274.125000
 10
98.600000
 20
274.125000
 10
98.600000
 20
273.825000
 10
98.075000
 20
273.825000
 10
98.075000
 20
273.500000
 10
98.600000
 20
273.500000
 10
98.600000
 20
273.150000
 10
98.125000
 20
273.150000
 10
98.125000
 20
272.850000
 10
99.025000
 20
272.850000
 10
99.200000
 20
272.875000
  0
LINE
  5
711
100
AcDbEntity
  8
0
370
    20
100
AcDbLine
 10
102.975000
 20
256.925000
 11
99.300000
 21
256.925000
  0
LINE
  5
714
100
AcDbEntity
  8
0
370
    20
100
AcDbLine
 10
102.975000
 20
256.300000
 11
99.250000
 21
256.300000
  0
LINE
  5
717
100
AcDbEntity
  8
0
370
    20
100
AcDbLine
 10
97.500000
 20
277.475000
 11
97.500000
 21
268.650000
  0
LINE
  5
71a
100
AcDbEntity
  8
0
370
    20
100
AcDbLine
 10
99.300000
 20
270.500000
 11
99.300000
 21
277.475000
  0
LINE
  5
71d
100
AcDbEntity
  8
0
370
    20
100
AcDbLine
 10
96.750000
 20
257.425000
 11
99.300000
 21
257.425000
  0
LINE
  5
720
100
AcDbEntity
  8
0
370
    20
100
AcDbLine
 10
99.300000
 20
244.350000
 11
99.300000
 21
257.425000
  0
LINE
  5
723
100
AcDbEntity
  8
0
370
    20
100
AcDbLine
 10
96.725000
 20
209.650000
 11
96.725000
 21
176.075000
  0
LINE
  5
726
100
AcDbEntity
  8
0
370
    20
100
AcDbLine
 10
96.725000
 20
211.100000
 11
96.725000
 21
277.475000
  0
LWPOLYLINE
  5
729
100
AcDbEntity
  8
0
100
AcDbPolyline
 90
     5
 70
     0
 43
0.200000
 10
94.450000
 20
264.350000
 10
93.275000
 20
264.350000
 10
93.275000
 20
264.050000
 10
93.825000
 20
264.050000
 10
94.450000
 20
261.425000
  0
LWPOLYLINE
  5
736
100
AcDbEntity
  8
0
100
AcDbPolyline
 90
     4
 70
     0
 10
94.450000
 20
266.925000
 10
93.400000
 20
266.925000
 10
93.400000
 20
266.700000
 10
94.500000
 20
266.700000
  0
LINE
  5
741
100
AcDbEntity
  8
0
370
     0
100
AcDbLine
 10
97.850000
 20
264.825000
 11
96.750000
 21
264.675000
  0
LINE
  5
744
100
AcDbEntity
  8
0
370
     0
100
AcDbLine
 10
93.400000
 20
266.225000
 11
93.400000
 21
265.875000
  0
LINE
  5
747
100
AcDbEntity
  8
0
370
     0
100
AcDbLine
 10
93.400000
 20
265.525000
 11
93.400000
 21
265.175000
  0
LINE
  5
74a
100
AcDbEntity
  8
0
370
     0
100
AcDbLine
 10
93.400000
 20
264.750000
 11
93.400000
 21
264.450000
  0
LINE
  5
74d
100
AcDbEntity
  8
0
370
     0
100
AcDbLine
 10
97.850000
 20
266.975000
 11
97.850000
 21
266.625000
  0
LINE
  5
750
100
AcDbEntity
  8
0
370
     0
100
AcDbLine
 10
97.850000
 20
266.275000
 11
97.850000
 21
265.900000
  0
LINE
  5
753
100
AcDbEntity
  8
0
370
     0
100
AcDbLine
 10
97.850000
 20
265.525000
 11
97.850000
 21
265.200000
  0
LINE
  5
756
100
AcDbEntity
  8
0
370
     0
100
AcDbLine
 10
97.850000
 20
264.850000
 11
97.850000
 21
264.500000
  0
LINE
  5
759
100
AcDbEntity
  8
0
370
     0
100
AcDbLine
 10
94.500000
 20
266.075000
 11
93.400000
 21
265.875000
  0
LINE
  5
75c
100
AcDbEntity
  8
0
370
     0
100
AcDbLine
 10
94.500000
 20
266.425000
 11
93.400000
 21
266.225000
  0
LINE
  5
75f
100
AcDbEntity
  8
0
370
     0
100
AcDbLine
 10
97.850000
 20
266.625000
 11
96.650000
 21
266.450000
  0
LINE
  5
762
100
AcDbEntity
  8
0
370
     0
100
AcDbLine
 10
94.500000
 20
265.375000
 11
93.400000
 21
265.175000
  0
LINE
  5
765
100
AcDbEntity
  8
0
370
     0
100
AcDbLine
 10
97.850000
 20
265.925000
 11
96.650000
 21
265.750000
  0
LINE
  5
768
100
AcDbEntity
  8
0
370
     0
100
AcDbLine
 10
94.500000
 20
265.725000
 11
93.400000
 21
265.525000
  0
LINE
  5
76b
100
AcDbEntity
  8
0
370
     0
100
AcDbLine
 10
97.850000
 20
266.275000
 11
96.650000
 21
266.100000
  0
LINE
  5
76e
100
AcDbEntity
  8
0
370
     0
100
AcDbLine
 10
97.850000
 20
266.975000
 11
96.650000
 21
266.800000
  0
LINE
  5
771
100
AcDbEntity
  8
0
370
     0
100
AcDbLine
 10
97.850000
 20
265.575000
 11
96.650000
 21
265.400000
  0
LINE
  5
774
100
AcDbEntity
  8
0
370
     0
100
AcDbLine
 10
94.500000
 20
264.625000
 11
93.400000
 21
264.425000
  0
LINE
  5
777
100
AcDbEntity
  8
0
370
     0
100
AcDbLine
 10
97.850000
 20
265.175000
 11
96.650000
 21
265.000000
  0
LINE
  5
77a
100
AcDbEntity
  8
0
370
     0
100
AcDbLine
 10
94.500000
 20
264.975000
 11
93.400000
 21
264.775000
  0
HATCH
  5
77d
330
F6
100
AcDbEntity
  8
0
100
AcDbHatch
 10
0.0
 20
0.0
 30
0.0
210
0.0
220
0.0
230
1.0
  2
SOLID
 70
     1
 71
     0
 91
     1
 92
     7
 72
     0
 73
     1
 93
    16
 10
91.950000
 20
277.425000
 10
93.700000
 20
277.425000
 10
93.700000
 20
274.775000
 10
92.700000
 20
274.775000
 10
92.700000
 20
274.475000
 10
93.050000
 20
274.475000
 10
93.050000
 20
274.125000
 10
92.625000
 20
274.125000
 10
92.625000
 20
273.800000
 10
93.125000
 20
273.800000
 10
93.125000
 20
273.500000
 10
92.650000
 20
273.500000
 10
92.650000
 20
273.150000
 10
93.125000
 20
273.150000
 10
93.125000
 20
272.900000
 10
91.950000
 20
272.900000
 97
     1
330
780
 75
     0
 76
     1
 47
0.651316
 98
     1
 10
0.0
 20
0.0
  0
LWPOLYLINE
  5
780
330
F6
100
AcDbEntity
  8
0
100
AcDbPolyline
 90
    16
 70
     1
 10
91.950000
 20
277.425000
 10
93.700000
 20
277.425000
 10
93.700000
 20
274.775000
 10
92.700000
 20
274.775000
 10
92.700000
 20
274.475000
 10
93.050000
 20
274.475000
 10
93.050000
 20
274.125000
 10
92.625000
 20
274.125000
 10
92.625000
 20
273.800000
 10
93.125000
 20
273.800000
 10
93.125000
 20
273.500000
 10
92.650000
 20
273.500000
 10
92.650000
 20
273.150000
 10
93.125000
 20
273.150000
 10
93.125000
 20
272.900000
 10
91.950000
 20
272.900000
  0
HATCH
  5
7a3
330
F6
100
AcDbEntity
  8
0
100
AcDbHatch
 10
0.0
 20
0.0
 30
0.0
210
0.0
220
0.0
230
1.0
  2
SOLID
 70
     1
 71
     0
 91
     1
 92
     7
 72
     0
 73
     1
 93
    16
 10
97.500000
 20
277.475000
 10
99.250000
 20
277.475000
 10
99.250000
 20
272.900000
 10
98.200000
 20
272.900000
 10
98.200000
 20
273.150000
 10
98.625000
 20
273.150000
 10
98.625000
 20
273.525000
 10
98.125000
 20
273.525000
 10
98.125000
 20
273.850000
 10
98.600000
 20
273.850000
 10
98.600000
 20
274.150000
 10
98.125000
 20
274.150000
 10
98.125000
 20
274.475000
 10
98.600000
 20
274.475000
 10
98.600000
 20
274.750000
 10
97.500000
 20
274.750000
 97
     1
330
7a6
 75
     0
 76
     1
 47
0.651316
 98
     1
 10
0.0
 20
0.0
  0
LWPOLYLINE
  5
7a6
330
F6
100
AcDbEntity
  8
0
100
AcDbPolyline
 90
    16
 70
     1
 10
97.500000
 20
277.475000
 10
99.250000
 20
277.475000
 10
99.250000
 20
272.900000
 10
98.200000
 20
272.900000
 10
98.200000
 20
273.150000
 10
98.625000
 20
273.150000
 10
98.625000
 20
273.525000
 10
98.125000
 20
273.525000
 10
98.125000
 20
273.850000
 10
98.600000
 20
273.850000
 10
98.600000
 20
274.150000
 10
98.125000
 20
274.150000
 10
98.125000
 20
274.475000
 10
98.600000
 20
274.475000
 10
98.600000
 20
274.750000
 10
97.500000
 20
274.750000
  0
HATCH
  5
7c9
330
F6
100
AcDbEntity
  8
0
100
AcDbHatch
 10
0.0
 20
0.0
 30
0.0
210
0.0
220
0.0
230
1.0
  2
SOLID
 70
     1
 71
     0
 91
     1
 92
     7
 72
     0
 73
     1
 93
    28
 10
91.950000
 20
272.875000
 10
93.125000
 20
272.875000
 10
93.125000
 20
273.150000
 10
92.625000
 20
273.150000
 10
92.625000
 20
273.525000
 10
93.200000
 20
273.525000
 10
93.200000
 20
273.850000
 10
92.650000
 20
273.850000
 10
92.650000
 20
274.125000
 10
93.125000
 20
274.125000
 10
93.125000
 20
274.475000
 10
92.725000
 20
274.475000
 10
92.725000
 20
274.700000
 10
93.750000
 20
274.700000
 10
93.750000
 20
268.675000
 10
92.775000
 20
268.675000
 10
92.775000
 20
269.025000
 10
93.200000
 20
269.025000
 10
93.200000
 20
269.275000
 10
92.725000
 20
269.275000
 10
92.725000
 20
269.575000
 10
93.200000
 20
269.575000
 10
93.200000
 20
269.900000
 10
92.725000
 20
269.900000
 10
92.725000
 20
270.250000
 10
93.125000
 20
270.250000
 10
93.125000
 20
270.525000
 10
91.925000
 20
270.525000
 97
     1
330
7cc
 75
     0
 76
     1
 47
0.651316
 98
     1
 10
0.0
 20
0.0
  0
LWPOLYLINE
  5
7cc
330
F6
100
AcDbEntity
  8
0
100
AcDbPolyline
 90
    29
 70
     0
 10
91.950000
 20
272.875000
 10
93.125000
 20
272.875000
 10
93.125000
 20
273.150000
 10
92.625000
 20
273.150000
 10
92.625000
 20
273.525000
 10
93.200000
 20
273.525000
 10
93.200000
 20
273.850000
 10
92.650000
 20
273.850000
 10
92.650000
 20
274.125000
 10
93.125000
 20
274.125000
 10
93.125000
 20
274.475000
 10
92.725000
 20
274.475000
 10
92.725000
 20
274.700000
 10
93.750000
 20
274.700000
 10
93.750000
 20
268.675000
 10
92.775000
 20
268.675000
 10
92.775000
 20
269.025000
 10
93.200000
 20
269.025000
 10
93.200000
 20
269.275000
 10
92.725000
 20
269.275000
 10
92.725000
 20
269.575000
 10
93.200000
 20
269.575000
 10
93.200000
 20
269.900000
 10
92.725000
 20
269.900000
 10
92.725000
 20
270.250000
 10
93.125000
 20
270.250000
 10
93.125000
 20
270.525000
 10
91.925000
 20
270.525000
 10
91.950000
 20
272.875000
  0
HATCH
  5
809
330
F6
100
AcDbEntity
  8
0
100
AcDbHatch
 10
0.0
 20
0.0
 30
0.0
210
0.0
220
0.0
230
1.0
  2
SOLID
 70
     1
 71
     0
 91
     1
 92
     7
 72
     0
 73
     1
 93
    30
 10
97.500000
 20
274.750000
 10
97.550000
 20
274.750000
 10
98.550000
 20
274.750000
 10
98.550000
 20
274.475000
 10
98.125000
 20
274.475000
 10
98.125000
 20
274.125000
 10
98.550000
 20
274.125000
 10
98.550000
 20
273.850000
 10
98.075000
 20
273.850000
 10
98.075000
 20
273.500000
 10
98.600000
 20
273.500000
 10
98.600000
 20
273.150000
 10
98.075000
 20
273.150000
 10
98.075000
 20
272.825000
 10
99.250000
 20
272.825000
 10
99.250000
 20
270.600000
 10
98.050000
 20
270.600000
 10
98.050000
 20
270.200000
 10
98.475000
 20
270.200000
 10
98.475000
 20
269.925000
 10
98.050000
 20
269.925000
 10
98.050000
 20
269.575000
 10
98.475000
 20
269.575000
 10
98.475000
 20
269.275000
 10
98.050000
 20
269.275000
 10
98.050000
 20
268.950000
 10
98.475000
 20
268.950000
 10
98.475000
 20
268.675000
 10
97.550000
 20
268.675000
 10
97.550000
 20
274.750000
 97
     1
330
80c
 75
     0
 76
     1
 47
0.651316
 98
     1
 10
0.0
 20
0.0
  0
LWPOLYLINE
  5
80c
330
F6
100
AcDbEntity
  8
0
100
AcDbPolyline
 90
    31
 70
     0
 10
97.500000
 20
274.750000
 10
97.550000
 20
274.750000
 10
98.550000
 20
274.750000
 10
98.550000
 20
274.475000
 10
98.125000
 20
274.475000
 10
98.125000
 20
274.125000
 10
98.550000
 20
274.125000
 10
98.550000
 20
273.850000
 10
98.075000
 20
273.850000
 10
98.075000
 20
273.500000
 10
98.600000
 20
273.500000
 10
98.600000
 20
273.150000
 10
98.075000
 20
273.150000
 10
98.075000
 20
272.825000
 10
99.250000
 20
272.825000
 10
99.250000
 20
270.600000
 10
98.050000
 20
270.600000
 10
98.050000
 20
270.200000
 10
98.475000
 20
270.200000
 10
98.475000
 20
269.925000
 10
98.050000
 20
269.925000
 10
98.050000
 20
269.575000
 10
98.475000
 20
269.575000
 10
98.475000
 20
269.275000
 10
98.050000
 20
269.275000
 10
98.050000
 20
268.950000
 10
98.475000
 20
268.950000
 10
98.475000
 20
268.675000
 10
97.550000
 20
268.675000
 10
97.550000
 20
274.750000
 10
97.500000
 20
274.750000
  0
HATCH
  5
84d
330
F6
100
AcDbEntity
  8
0
100
AcDbHatch
 10
0.0
 20
0.0
 30
0.0
210
0.0
220
0.0
230
1.0
  2
SOLID
 70
     1
 71
     0
 91
     1
 92
     7
 72
     0
 73
     1
 93
     6
 10
88.350000
 20
253.050000
 10
89.075000
 20
252.275000
 10
90.900000
 20
252.275000
 10
90.900000
 20
251.525000
 10
89.075000
 20
251.525000
 10
88.325000
 20
250.725000
 97
     1
330
850
 75
     0
 76
     1
 47
0.651316
 98
     1
 10
0.0
 20
0.0
  0
LWPOLYLINE
  5
850
330
F6
100
AcDbEntity
  8
0
100
AcDbPolyline
 90
     6
 70
     1
 10
88.350000
 20
253.050000
 10
89.075000
 20
252.275000
 10
90.900000
 20
252.275000
 10
90.900000
 20
251.525000
 10
89.075000
 20
251.525000
 10
88.325000
 20
250.725000
  0
HATCH
  5
85f
330
F6
100
AcDbEntity
  8
0
100
AcDbHatch
 10
0.0
 20
0.0
 30
0.0
210
0.0
220
0.0
230
1.0
  2
SOLID
 70
     1
 71
     0
 91
     1
 92
     7
 72
     0
 73
     1
 93
     6
 10
88.400000
 20
253.050000
 10
89.125000
 20
252.275000
 10
90.950000
 20
252.275000
 10
90.950000
 20
251.525000
 10
89.125000
 20
251.525000
 10
88.375000
 20
250.725000
 97
     1
330
862
 75
     0
 76
     1
 47
0.651316
 98
     1
 10
0.0
 20
0.0
  0
LWPOLYLINE
  5
862
330
F6
100
AcDbEntity
  8
0
100
AcDbPolyline
 90
     6
 70
     1
 10
88.400000
 20
253.050000
 10
89.125000
 20
252.275000
 10
90.950000
 20
252.275000
 10
90.950000
 20
251.525000
 10
89.125000
 20
251.525000
 10
88.375000
 20
250.725000
  0
LWPOLYLINE
  5
871
100
AcDbEntity
  8
0
100
AcDbPolyline
 90
     6
 70
     0
 10
88.400000
 20
253.050000
 10
89.125000
 20
252.275000
 10
90.950000
 20
252.275000
 10
90.950000
 20
251.525000
 10
89.125000
 20
251.525000
 10
88.375000
 20
250.725000
  0
HATCH
  5
880
330
F6
100
AcDbEntity
  8
0
100
AcDbHatch
 10
0.0
 20
0.0
 30
0.0
210
0.0
220
0.0
230
1.0
  2
SOLID
 70
     1
 71
     0
 91
     1
 92
     7
 72
     0
 73
     1
 93
     6
 10
88.350000
 20
246.875000
 10
89.075000
 20
246.100000
 10
90.900000
 20
246.100000
 10
90.900000
 20
245.350000
 10
89.075000
 20
245.350000
 10
88.325000
 20
244.550000
 97
     1
330
883
 75
     0
 76
     1
 47
0.651316
 98
     1
 10
0.0
 20
0.0
  0
LWPOLYLINE
  5
883
330
F6
100
AcDbEntity
  8
0
100
AcDbPolyline
 90
     6
 70
     1
 10
88.350000
 20
246.875000
 10
89.075000
 20
246.100000
 10
90.900000
 20
246.100000
 10
90.900000
 20
245.350000
 10
89.075000
 20
245.350000
 10
88.325000
 20
244.550000
  0
LWPOLYLINE
  5
892
100
AcDbEntity
  8
0
100
AcDbPolyline
 90
     6
 70
     0
 10
88.350000
 20
246.875000
 10
89.075000
 20
246.100000
 10
90.900000
 20
246.100000
 10
90.900000
 20
245.350000
 10
89.075000
 20
245.350000
 10
88.325000
 20
244.550000
  0
HATCH
  5
8a1
330
F6
100
AcDbEntity
  8
0
100
AcDbHatch
 10
0.0
 20
0.0
 30
0.0
210
0.0
220
0.0
230
1.0
  2
SOLID
 70
     1
 71
     0
 91
     1
 92
     7
 72
     0
 73
     1
 93
     6
 10
102.900000
 20
253.050000
 10
102.175000
 20
252.275000
 10
100.350000
 20
252.275000
 10
100.350000
 20
251.525000
 10
102.175000
 20
251.525000
 10
102.925000
 20
250.725000
 97
     1
330
8a4
 75
     0
 76
     1
 47
0.651316
 98
     1
 10
0.0
 20
0.0
  0
LWPOLYLINE
  5
8a4
330
F6
100
AcDbEntity
  8
0
100
AcDbPolyline
 90
     6
 70
     1
 10
102.900000
 20
253.050000
 10
102.175000
 20
252.275000
 10
100.350000
 20
252.275000
 10
100.350000
 20
251.525000
 10
102.175000
 20
251.525000
 10
102.925000
 20
250.725000
  0
LWPOLYLINE
  5
8b3
100
AcDbEntity
  8
0
100
AcDbPolyline
 90
     6
 70
     0
 10
102.900000
 20
253.050000
 10
102.175000
 20
252.275000
 10
100.350000
 20
252.275000
 10
100.350000
 20
251.525000
 10
102.175000
 20
251.525000
 10
102.925000
 20
250.725000
  0
HATCH
  5
8c2
330
F6
100
AcDbEntity
  8
0
100
AcDbHatch
 10
0.0
 20
0.0
 30
0.0
210
0.0
220
0.0
230
1.0
  2
SOLID
 70
     1
 71
     0
 91
     1
 92
     7
 72
     0
 73
     1
 93
     6
 10
102.950000
 20
246.875000
 10
102.225000
 20
246.100000
 10
100.400000
 20
246.100000
 10
100.400000
 20
245.350000
 10
102.225000
 20
245.350000
 10
102.975000
 20
244.550000
 97
     1
330
8c5
 75
     0
 76
     1
 47
0.651316
 98
     1
 10
0.0
 20
0.0
  0
LWPOLYLINE
  5
8c5
330
F6
100
AcDbEntity
  8
0
100
AcDbPolyline
 90
     6
 70
     1
 10
102.950000
 20
246.875000
 10
102.225000
 20
246.100000
 10
100.400000
 20
246.100000
 10
100.400000
 20
245.350000
 10
102.225000
 20
245.350000
 10
102.975000
 20
244.550000
  0
LWPOLYLINE
  5
8d4
100
AcDbEntity
  8
0
100
AcDbPolyline
 90
     6
 70
     0
 10
102.950000
 20
246.875000
 10
102.225000
 20
246.100000
 10
100.400000
 20
246.100000
 10
100.400000
 20
245.350000
 10
102.225000
 20
245.350000
 10
102.975000
 20
244.550000
  0
HATCH
  5
8e3
330
F6
100
AcDbEntity
  8
0
100
AcDbHatch
 10
0.0
 20
0.0
 30
0.0
210
0.0
220
0.0
230
1.0
  2
SOLID
 70
     1
 71
     0
 91
     1
 92
     7
 72
     0
 73
     1
 93
     7
 10
88.275000
 20
256.300000
 10
91.925000
 20
256.300000
 10
91.925000
 20
244.350000
 10
90.550000
 20
242.975000
 10
89.025000
 20
242.975000
 10
89.025000
 20
254.550000
 10
88.275000
 20
254.550000
 97
     1
330
8e6
 75
     0
 76
     1
 47
0.651316
 98
     1
 10
0.0
 20
0.0
  0
LWPOLYLINE
  5
8e6
330
F6
100
AcDbEntity
  8
0
100
AcDbPolyline
 90
     7
 70
     1
 10
88.275000
 20
256.300000
 10
91.925000
 20
256.300000
 10
91.925000
 20
244.350000
 10
90.550000
 20
242.975000
 10
89.025000
 20
242.975000
 10
89.025000
 20
254.550000
 10
88.275000
 20
254.550000
  0
HATCH
  5
8f7
330
F6
100
AcDbEntity
  8
0
100
AcDbHatch
 10
0.0
 20
0.0
 30
0.0
210
0.0
220
0.0
230
1.0
  2
SOLID
 70
     1
 71
     0
 91
     1
 92
     7
 72
     0
 73
     1
 93
     7
 10
99.300000
 20
256.300000
 10
102.975000
 20
256.300000
 10
102.975000
 20
254.550000
 10
102.200000
 20
254.550000
 10
102.200000
 20
243.025000
 10
100.775000
 20
243.025000
 10
99.325000
 20
244.425000
 97
     1
330
8fa
 75
     0
 76
     1
 47
0.651316
 98
     1
 10
0.0
 20
0.0
  0
LWPOLYLINE
  5
8fa
330
F6
100
AcDbEntity
  8
0
100
AcDbPolyline
 90
     7
 70
     1
 10
99.300000
 20
256.300000
 10
102.975000
 20
256.300000
 10
102.975000
 20
254.550000
 10
102.200000
 20
254.550000
 10
102.200000
 20
243.025000
 10
100.775000
 20
243.025000
 10
99.325000
 20
244.425000
  0
LWPOLYLINE
  5
90b
100
AcDbEntity
  8
0
100
AcDbPolyline
 90
     3
 70
     0
 43
0.200000
 10
89.150000
 20
170.200000
 10
89.450000
 20
169.500000
 10
95.700000
 20
168.100000
  0
LINE
  5
914
100
AcDbEntity
  8
0
370
    20
100
AcDbLine
 10
94.225000
 20
178.950000
 11
92.100000
 21
178.950000
  0
LINE
  5
917
100
AcDbEntity
  8
0
370
    20
100
AcDbLine
 10
94.525000
 20
176.075000
 11
96.650000
 21
176.075000
  0
LWPOLYLINE
  5
91a
100
AcDbEntity
  8
0
100
AcDbPolyline
 90
     3
 70
     0
 43
0.200000
 10
94.450000
 20
178.400000
 10
92.200000
 20
178.400000
 10
89.025000
 20
176.775000
  0
LINE
  5
923
100
AcDbEntity
  8
0
370
    20
100
AcDbLine
 10
92.100000
 20
178.325000
 11
92.100000
 21
178.950000
  0
LINE
  5
926
100
AcDbEntity
  8
0
370
    20
100
AcDbLine
 10
92.725000
 20
168.775000
 11
92.725000
 21
178.400000
  0
LINE
  5
929
100
AcDbEntity
  8
0
370
    20
100
AcDbLine
 10
94.150000
 20
178.325000
 11
94.150000
 21
178.950000
  0
LINE
  5
92c
100
AcDbEntity
  8
0
370
    20
100
AcDbLine
 10
93.500000
 20
168.575000
 11
93.525000
 21
178.400000
  0
LWPOLYLINE
  5
92f
100
AcDbEntity
  8
0
100
AcDbPolyline
 90
     5
 70
     0
 43
0.200000
 10
91.250000
 20
177.825000
 10
91.250000
 20
172.525000
 10
89.950000
 20
172.525000
 10
89.950000
 20
170.950000
 10
89.075000
 20
170.950000
  0
LWPOLYLINE
  5
93c
100
AcDbEntity
  8
0
100
AcDbPolyline
 90
     3
 70
     0
 43
0.200000
 10
91.200000
 20
175.125000
 10
90.200000
 20
175.125000
 10
90.200000
 20
177.325000
  0
LWPOLYLINE
  5
945
100
AcDbEntity
  8
0
100
AcDbPolyline
 90
     3
 70
     0
 43
0.200000
 10
102.100000
 20
170.200000
 10
101.800000
 20
169.500000
 10
95.550000
 20
168.100000
  0
LINE
  5
94e
100
AcDbEntity
  8
0
370
    20
100
AcDbLine
 10
97.025000
 20
178.950000
 11
99.150000
 21
178.950000
  0
LWPOLYLINE
  5
951
100
AcDbEntity
  8
0
100
AcDbPolyline
 90
     3
 70
     0
 43
0.200000
 10
96.800000
 20
178.400000
 10
99.050000
 20
178.400000
 10
102.225000
 20
176.775000
  0
LINE
  5
95a
100
AcDbEntity
  8
0
370
    20
100
AcDbLine
 10
99.150000
 20
178.325000
 11
99.150000
 21
178.950000
  0
LINE
  5
95d
100
AcDbEntity
  8
0
370
    20
100
AcDbLine
 10
98.525000
 20
168.775000
 11
98.525000
 21
178.400000
  0
LINE
  5
960
100
AcDbEntity
  8
0
370
    20
100
AcDbLine
 10
97.100000
 20
178.325000
 11
97.100000
 21
178.950000
  0
LINE
  5
963
100
AcDbEntity
  8
0
370
    20
100
AcDbLine
 10
97.750000
 20
168.575000
 11
97.725000
 21
178.400000
  0
LWPOLYLINE
  5
966
100
AcDbEntity
  8
0
100
AcDbPolyline
 90
     5
 70
     0
 43
0.200000
 10
100.000000
 20
177.825000
 10
100.000000
 20
172.525000
 10
101.300000
 20
172.525000
 10
101.300000
 20
170.950000
 10
102.175000
 20
170.950000
  0
LWPOLYLINE
  5
973
100
AcDbEntity
  8
0
100
AcDbPolyline
 90
     3
 70
     0
 43
0.200000
 10
100.050000
 20
175.125000
 10
101.050000
 20
175.125000
 10
101.050000
 20
177.325000
  0
HATCH
  5
97c
330
F6
100
AcDbEntity
  8
0
100
AcDbHatch
 10
0.0
 20
0.0
 30
0.0
210
0.0
220
0.0
230
1.0
  2
SOLID
 70
     1
 71
     0
 91
     1
 92
     7
 72
     0
 73
     1
 93
     8
 10
92.150000
 20
178.950000
 10
94.150000
 20
178.950000
 10
94.150000
 20
178.400000
 10
93.475000
 20
178.400000
 10
93.475000
 20
168.600000
 10
92.775000
 20
168.850000
 10
92.775000
 20
178.400000
 10
92.150000
 20
178.400000
 97
     1
330
97f
 75
     0
 76
     1
 47
0.651316
 98
     1
 10
0.0
 20
0.0
  0
LWPOLYLINE
  5
97f
330
F6
100
AcDbEntity
  8
0
100
AcDbPolyline
 90
     8
 70
     1
 43
0.200000
 10
92.150000
 20
178.950000
 10
94.150000
 20
178.950000
 10
94.150000
 20
178.400000
 10
93.475000
 20
178.400000
 10
93.475000
 20
168.600000
 10
92.775000
 20
168.850000
 10
92.775000
 20
178.400000
 10
92.150000
 20
178.400000
  0
HATCH
  5
992
330
F6
100
AcDbEntity
  8
0
100
AcDbHatch
 10
0.0
 20
0.0
 30
0.0
210
0.0
220
0.0
230
1.0
  2
SOLID
 70
     1
 71
     0
 91
     1
 92
     7
 72
     0
 73
     1
 93
     9
 10
97.100000
 20
178.950000
 10
99.150000
 20
178.950000
 10
99.150000
 20
178.450000
 10
98.475000
 20
178.450000
 10
98.475000
 20
168.850000
 10
97.775000
 20
168.650000
 10
97.775000
 20
178.400000
 10
97.075000
 20
178.400000
 10
97.075000
 20
178.950000
 97
     1
330
995
 75
     0
 76
     1
 47
0.651316
 98
     1
 10
0.0
 20
0.0
  0
LWPOLYLINE
  5
995
330
F6
100
AcDbEntity
  8
0
100
AcDbPolyline
 90
     9
 70
     1
 43
0.200000
 10
97.100000
 20
178.950000
 10
99.150000
 20
178.950000
 10
99.150000
 20
178.450000
 10
98.475000
 20
178.450000
 10
98.475000
 20
168.850000
 10
97.775000
 20
168.650000
 10
97.775000
 20
178.400000
 10
97.075000
 20
178.400000
 10
97.075000
 20
178.950000
  0
HATCH
  5
9aa
330
F6
100
AcDbEntity
  8
0
100
AcDbHatch
 10
0.0
 20
0.0
 30
0.0
210
0.0
220
0.0
230
1.0
  2
SOLID
 70
     1
 71
     0
 91
     1
 92
     7
 72
     0
 73
     1
 93
     4
 10
91.300000
 20
177.875000
 10
91.300000
 20
175.125000
 10
90.225000
 20
175.125000
 10
90.225000
 20
177.275000
 97
     1
330
9ad
 75
     0
 76
     1
 47
0.651316
 98
     1
 10
0.0
 20
0.0
  0
LWPOLYLINE
  5
9ad
330
F6
100
AcDbEntity
  8
0
100
AcDbPolyline
 90
     4
 70
     1
 43
0.200000
 10
91.300000
 20
177.875000
 10
91.300000
 20
175.125000
 10
90.225000
 20
175.125000
 10
90.225000
 20
177.275000
  0
HATCH
  5
9b8
330
F6
100
AcDbEntity
  8
0
100
AcDbHatch
 10
0.0
 20
0.0
 30
0.0
210
0.0
220
0.0
230
1.0
  2
SOLID
 70
     1
 71
     0
 91
     1
 92
     7
 72
     0
 73
     1
 93
     4
 10
100.000000
 20
177.900000
 10
101.025000
 20
177.350000
 10
101.025000
 20
175.175000
 10
100.000000
 20
175.175000
 97
     1
330
9bb
 75
     0
 76
     1
 47
0.651316
 98
     1
 10
0.0
 20
0.0
  0
LWPOLYLINE
  5
9bb
330
F6
100
AcDbEntity
  8
0
100
AcDbPolyline
 90
     4
 70
     1
 43
0.200000
 10
100.000000
 20
177.900000
 10
101.025000
 20
177.350000
 10
101.025000
 20
175.175000
 10
100.000000
 20
175.175000
  0
HATCH
  5
9c6
330
F6
100
AcDbEntity
  8
0
100
AcDbHatch
 10
0.0
 20
0.0
 30
0.0
210
0.0
220
0.0
230
1.0
  2
SOLID
 70
     1
 71
     0
 91
     1
 92
     7
 72
     0
 73
     1
 93
    10
 10
91.250000
 20
177.825000
 10
92.200000
 20
178.400000
 10
92.725000
 20
178.325000
 10
92.725000
 20
168.775000
 10
89.500000
 20
169.475000
 10
89.075000
 20
170.375000
 10
89.075000
 20
170.950000
 10
90.000000
 20
170.950000
 10
90.000000
 20
172.525000
 10
91.250000
 20
172.525000
 97
     1
330
9c9
 75
     0
 76
     1
 47
0.651316
 98
     1
 10
0.0
 20
0.0
  0
LWPOLYLINE
  5
9c9
330
F6
100
AcDbEntity
  8
0
100
AcDbPolyline
 90
    10
 70
     1
 43
0.200000
 10
91.250000
 20
177.825000
 10
92.200000
 20
178.400000
 10
92.725000
 20
178.325000
 10
92.725000
 20
168.775000
 10
89.500000
 20
169.475000
 10
89.075000
 20
170.375000
 10
89.075000
 20
170.950000
 10
90.000000
 20
170.950000
 10
90.000000
 20
172.525000
 10
91.250000
 20
172.525000
  0
HATCH
  5
9e0
330
F6
100
AcDbEntity
  8
0
100
AcDbHatch
 10
0.0
 20
0.0
 30
0.0
210
0.0
220
0.0
230
1.0
  2
SOLID
 70
     1
 71
     0
 91
     1
 92
     7
 72
     0
 73
     1
 93
    10
 10
93.550000
 20
178.375000
 10
94.525000
 20
178.375000
 10
94.525000
 20
176.100000
 10
96.725000
 20
176.100000
 10
96.725000
 20
178.375000
 10
97.725000
 20
178.375000
 10
97.725000
 20
168.600000
 10
95.625000
 20
168.150000
 10
93.525000
 20
168.675000
 10
93.525000
 20
178.375000
 97
     1
330
9e3
 75
     0
 76
     1
 47
0.651316
 98
     1
 10
0.0
 20
0.0
  0
LWPOLYLINE
  5
9e3
330
F6
100
AcDbEntity
  8
0
100
AcDbPolyline
 90
    10
 70
     1
 43
0.200000
 10
93.550000
 20
178.375000
 10
94.525000
 20
178.375000
 10
94.525000
 20
176.100000
 10
96.725000
 20
176.100000
 10
96.725000
 20
178.375000
 10
97.725000
 20
178.375000
 10
97.725000
 20
168.600000
 10
95.625000
 20
168.150000
 10
93.525000
 20
168.675000
 10
93.525000
 20
178.375000
  0
HATCH
  5
9fa
330
F6
100
AcDbEntity
  8
0
100
AcDbHatch
 10
0.0
 20
0.0
 30
0.0
210
0.0
220
0.0
230
1.0
  2
SOLID
 70
     1
 71
     0
 91
     1
 92
     7
 72
     0
 73
     1
 93
    10
 10
98.525000
 20
178.375000
 10
99.150000
 20
178.375000
 10
100.000000
 20
177.900000
 10
100.000000
 20
172.525000
 10
101.300000
 20
172.525000
 10
101.300000
 20
170.950000
 10
102.200000
 20
170.950000
 10
102.200000
 20
170.275000
 10
101.800000
 20
169.500000
 10
98.525000
 20
168.800000
 97
     1
330
9fd
 75
     0
 76
     1
 47
0.651316
 98
     1
 10
0.0
 20
0.0
  0
LWPOLYLINE
  5
9fd
330
F6
100
AcDbEntity
  8
0
100
AcDbPolyline
 90
    10
 70
     1
 43
0.200000
 10
98.525000
 20
178.375000
 10
99.150000
 20
178.375000
 10
100.000000
 20
177.900000
 10
100.000000
 20
172.525000
 10
101.300000
 20
172.525000
 10
101.300000
 20
170.950000
 10
102.200000
 20
170.950000
 10
102.200000
 20
170.275000
 10
101.800000
 20
169.500000
 10
98.525000
 20
168.800000
  0
HATCH
  5
a14
330
F6
100
AcDbEntity
  8
0
100
AcDbHatch
 10
0.0
 20
0.0
 30
0.0
210
0.0
220
0.0
230
1.0
  2
SOLID
 70
     1
 71
     0
 91
     1
 92
     7
 72
     0
 73
     1
 93
     9
 10
89.100000
 20
176.775000
 10
90.225000
 20
177.250000
 10
90.225000
 20
175.175000
 10
91.200000
 20
175.175000
 10
91.200000
 20
172.525000
 10
89.925000
 20
172.525000
 10
89.925000
 20
171.025000
 10
89.150000
 20
171.025000
 10
89.150000
 20
176.775000
 97
     1
330
a17
 75
     0
 76
     1
 47
0.651316
 98
     1
 10
0.0
 20
0.0
  0
LWPOLYLINE
  5
a17
330
F6
100
AcDbEntity
  8
0
100
AcDbPolyline
 90
     9
 70
     1
 43
0.200000
 10
89.100000
 20
176.775000
 10
90.225000
 20
177.250000
 10
90.225000
 20
175.175000
 10
91.200000
 20
175.175000
 10
91.200000
 20
172.525000
 10
89.925000
 20
172.525000
 10
89.925000
 20
171.025000
 10
89.150000
 20
171.025000
 10
89.150000
 20
176.775000
  0
HATCH
  5
a2c
330
F6
100
AcDbEntity
  8
0
100
AcDbHatch
 10
0.0
 20
0.0
 30
0.0
210
0.0
220
0.0
230
1.0
  2
SOLID
 70
     1
 71
     0
 91
     1
 92
     7
 72
     0
 73
     1
 93
     8
 10
101.025000
 20
177.325000
 10
102.150000
 20
176.775000
 10
102.150000
 20
171.000000
 10
101.375000
 20
171.000000
 10
101.375000
 20
172.550000
 10
100.050000
 20
172.550000
 10
100.050000
 20
175.125000
 10
101.025000
 20
175.125000
 97
     1
330
a2f
 75
     0
 76
     1
 47
0.651316
 98
     1
 10
0.0
 20
0.0
  0
LWPOLYLINE
  5
a2f
330
F6
100
AcDbEntity
  8
0
100
AcDbPolyline
 90
     8
 70
     1
 43
0.200000
 10
101.025000
 20
177.325000
 10
102.150000
 20
176.775000
 10
102.150000
 20
171.000000
 10
101.375000
 20
171.000000
 10
101.375000
 20
172.550000
 10
100.050000
 20
172.550000
 10
100.050000
 20
175.125000
 10
101.025000
 20
175.125000
  0
HATCH
  5
a42
330
F6
100
AcDbEntity
  8
0
100
AcDbHatch
 10
0.0
 20
0.0
 30
0.0
210
0.0
220
0.0
230
1.0
  2
SOLID
 70
     1
 71
     0
 91
     2
 92
     7
 72
     0
 73
     1
 93
     4
 10
89.025000
 20
170.400000
 10
89.050000
 20
209.900000
 10
88.275000
 20
209.900000
 10
88.275000
 20
173.575000
 97
     1
330
a45
 92
     7
 72
     0
 73
     1
 93
     4
 10
89.050000
 20
211.375000
 10
89.075000
 20
245.325000
 10
88.275000
 20
244.550000
 10
88.275000
 20
211.375000
 97
     1
330
a48
 75
     0
 76
     1
 47
0.651316
 98
     1
 10
0.0
 20
0.0
  0
LWPOLYLINE
  5
a45
330
F6
100
AcDbEntity
  8
0
100
AcDbPolyline
 90
     4
 70
     1
 43
0.200000
 10
89.025000
 20
170.400000
 10
89.050000
 20
209.900000
 10
88.275000
 20
209.900000
 10
88.275000
 20
173.575000
  0
LWPOLYLINE
  5
a48
330
F6
100
AcDbEntity
  8
0
100
AcDbPolyline
 90
     4
 70
     1
 43
0.200000
 10
89.050000
 20
211.375000
 10
89.075000
 20
245.325000
 10
88.275000
 20
244.550000
 10
88.275000
 20
211.375000
  0
HATCH
  5
a5b
330
F6
100
AcDbEntity
  8
0
100
AcDbHatch
 10
0.0
 20
0.0
 30
0.0
210
0.0
220
0.0
230
1.0
  2
SOLID
 70
     1
 71
     0
 91
     2
 92
     7
 72
     0
 73
     1
 93
     4
 10
102.975000
 20
173.575000
 10
102.975000
 20
209.900000
 10
102.275000
 20
209.900000
 10
102.275000
 20
170.275000
 97
     1
330
a5e
 92
     7
 72
     0
 73
     1
 93
     4
 10
102.975000
 20
211.375000
 10
102.975000
 20
244.475000
 10
102.275000
 20
245.375000
 10
102.275000
 20
211.375000
 97
     1
330
a61
 75
     0
 76
     1
 47
0.651316
 98
     1
 10
0.0
 20
0.0
  0
LWPOLYLINE
  5
a5e
330
F6
100
AcDbEntity
  8
0
100
AcDbPolyline
 90
     4
 70
     1
 43
0.200000
 10
102.975000
 20
173.575000
 10
102.975000
 20
209.900000
 10
102.275000
 20
209.900000
 10
102.275000
 20
170.275000
  0
LWPOLYLINE
  5
a61
330
F6
100
AcDbEntity
  8
0
100
AcDbPolyline
 90
     4
 70
     1
 43
0.200000
 10
102.975000
 20
211.375000
 10
102.975000
 20
244.475000
 10
102.275000
 20
245.375000
 10
102.275000
 20
211.375000
  0
HATCH
  5
a74
330
F6
100
AcDbEntity
  8
0
100
AcDbHatch
 10
0.0
 20
0.0
 30
0.0
210
0.0
220
0.0
230
1.0
  2
SOLID
 70
     1
 71
     0
 91
     1
 92
     7
 72
     0
 73
     1
 93
     4
 10
88.325000
 20
254.550000
 10
89.075000
 20
254.550000
 10
89.075000
 20
252.400000
 10
88.325000
 20
253.225000
 97
     1
330
a77
 75
     0
 76
     1
 47
0.651316
 98
     1
 10
0.0
 20
0.0
  0
LWPOLYLINE
  5
a77
330
F6
100
AcDbEntity
  8
0
100
AcDbPolyline
 90
     4
 70
     1
 43
0.200000
 10
88.325000
 20
254.550000
 10
89.075000
 20
254.550000
 10
89.075000
 20
252.400000
 10
88.325000
 20
253.225000
  0
HATCH
  5
a82
330
F6
100
AcDbEntity
  8
0
100
AcDbHatch
 10
0.0
 20
0.0
 30
0.0
210
0.0
220
0.0
230
1.0
  2
SOLID
 70
     1
 71
     0
 91
     1
 92
     7
 72
     0
 73
     1
 93
     7
 10
88.975000
 20
251.350000
 10
88.950000
 20
251.325000
 10
88.950000
 20
246.225000
 10
88.350000
 20
246.925000
 10
88.350000
 20
250.725000
 10
88.950000
 20
251.325000
 10
89.025000
 20
251.350000
 97
     1
330
a85
 75
     0
 76
     1
 47
0.651316
 98
     1
 10
0.0
 20
0.0
  0
LWPOLYLINE
  5
a85
330
F6
100
AcDbEntity
  8
0
100
AcDbPolyline
 90
     7
 70
     1
 43
0.200000
 10
88.975000
 20
251.350000
 10
88.950000
 20
251.325000
 10
88.950000
 20
246.225000
 10
88.350000
 20
246.925000
 10
88.350000
 20
250.725000
 10
88.950000
 20
251.325000
 10
89.025000
 20
251.350000
  0
HATCH
  5
a96
330
F6
100
AcDbEntity
  8
0
100
AcDbHatch
 10
0.0
 20
0.0
 30
0.0
210
0.0
220
0.0
230
1.0
  2
SOLID
 70
     1
 71
     0
 91
     1
 92
     7
 72
     0
 73
     1
 93
     4
 10
102.225000
 20
254.550000
 10
102.975000
 20
254.575000
 10
102.975000
 20
253.150000
 10
102.225000
 20
252.325000
 97
     1
330
a99
 75
     0
 76
     1
 47
0.651316
 98
     1
 10
0.0
 20
0.0
  0
LWPOLYLINE
  5
a99
330
F6
100
AcDbEntity
  8
0
100
AcDbPolyline
 90
     4
 70
     1
 43
0.200000
 10
102.225000
 20
254.550000
 10
102.975000
 20
254.575000
 10
102.975000
 20
253.150000
 10
102.225000
 20
252.325000
  0
HATCH
  5
aa4
330
F6
100
AcDbEntity
  8
0
100
AcDbHatch
 10
0.0
 20
0.0
 30
0.0
210
0.0
220
0.0
230
1.0
  2
SOLID
 70
     1
 71
     0
 91
     1
 92
     7
 72
     0
 73
     1
 93
     4
 10
102.200000
 20
251.500000
 10
103.000000
 20
250.650000
 10
103.000000
 20
246.925000
 10
102.200000
 20
246.025000
 97
     1
330
aa7
 75
     0
 76
     1
 47
0.651316
 98
     1
 10
0.0
 20
0.0
  0
LWPOLYLINE
  5
aa7
330
F6
100
AcDbEntity
  8
0
100
AcDbPolyline
 90
     4
 70
     1
 43
0.200000
 10
102.200000
 20
251.500000
 10
103.000000
 20
250.650000
 10
103.000000
 20
246.925000
 10
102.200000
 20
246.025000
  0
SPLINE
  5
ab2
100
AcDbEntity
  8
0
370
    20
100
AcDbSpline
210
0.000000
220
0.000000
230
1.000000
 70
     8
 71
     3
 72
    35
 73
    31
 74
     0
 42
0.0000001
 43
0.0000001
 44
0.0000000001
 40
0.000000
 40
0.000000
 40
0.000000
 40
0.000000
 40
2.236068
 40
2.236068
 40
2.236068
 40
4.472136
 40
4.472136
 40
4.472136
 40
6.708204
 40
6.708204
 40
6.708204
 40
8.944272
 40
8.944272
 40
8.944272
 40
11.180340
 40
11.180340
 40
11.180340
 40
13.416408
 40
13.416408
 40
13.416408
 40
15.652476
 40
15.652476
 40
15.652476
 40
17.888544
 40
17.888544
 40
17.888544
 40
20.124612
 40
20.124612
 40
20.124612
 40
22.360680
 40
22.360680
 40
22.360680
 40
22.360680
 10
85.525000
 20
210.775000
 30
0.000000
 10
85.875000
 20
210.925000
 30
0.000000
 10
86.875000
 20
211.775000
 30
0.000000
 10
87.525000
 20
211.775000
 30
0.000000
 10
88.200000
 20
211.775000
 30
0.000000
 10
88.875000
 20
210.775000
 30
0.000000
 10
89.525000
 20
210.775000
 30
0.000000
 10
90.200000
 20
210.775000
 30
0.000000
 10
90.875000
 20
211.775000
 30
0.000000
 10
91.525000
 20
211.775000
 30
0.000000
 10
92.200000
 20
211.775000
 30
0.000000
 10
92.875000
 20
210.775000
 30
0.000000
 10
93.525000
 20
210.775000
 30
0.000000
 10
94.200000
 20
210.775000
 30
0.000000
 10
94.875000
 20
211.775000
 30
0.000000
 10
95.525000
 20
211.775000
 30
0.000000
 10
96.200000
 20
211.775000
 30
0.000000
 10
96.875000
 20
210.775000
 30
0.000000
 10
97.525000
 20
210.775000
 30
0.000000
 10
98.200000
 20
210.775000
 30
0.000000
 10
98.875000
 20
211.775000
 30
0.000000
 10
99.525000
 20
211.775000
 30
0.000000
 10
100.200000
 20
211.775000
 30
0.000000
 10
100.875000
 20
210.775000
 30
0.000000
 10
101.525000
 20
210.775000
 30
0.000000
 10
102.200000
 20
210.775000
 30
0.000000
 10
102.875000
 20
211.775000
 30
0.000000
 10
103.525000
 20
211.775000
 30
0.000000
 10
104.200000
 20
211.775000
 30
0.000000
 10
105.200000
 20
210.925000
 30
0.000000
 10
105.525000
 20
210.775000
 30
0.000000
  0
SPLINE
  5
ab5
100
AcDbEntity
  8
0
370
    20
100
AcDbSpline
210
0.000000
220
0.000000
230
1.000000
 70
     8
 71
     3
 72
    35
 73
    31
 74
     0
 42
0.0000001
 43
0.0000001
 44
0.0000000001
 40
0.000000
 40
0.000000
 40
0.000000
 40
0.000000
 40
2.236068
 40
2.236068
 40
2.236068
 40
4.472136
 40
4.472136
 40
4.472136
 40
6.708204
 40
6.708204
 40
6.708204
 40
8.944272
 40
8.944272
 40
8.944272
 40
11.180340
 40
11.180340
 40
11.180340
 40
13.416408
 40
13.416408
 40
13.416408
 40
15.652476
 40
15.652476
 40
15.652476
 40
17.888544
 40
17.888544
 40
17.888544
 40
20.124612
 40
20.124612
 40
20.124612
 40
22.360680
 40
22.360680
 40
22.360680
 40
22.360680
 10
85.525000
 20
209.375000
 30
0.000000
 10
85.875000
 20
209.525000
 30
0.000000
 10
86.875000
 20
210.375000
 30
0.000000
 10
87.525000
 20
210.375000
 30
0.000000
 10
88.200000
 20
210.375000
 30
0.000000
 10
88.875000
 20
209.375000
 30
0.000000
 10
89.525000
 20
209.375000
 30
0.000000
 10
90.200000
 20
209.375000
 30
0.000000
 10
90.875000
 20
210.375000
 30
0.000000
 10
91.525000
 20
210.375000
 30
0.000000
 10
92.200000
 20
210.375000
 30
0.000000
 10
92.875000
 20
209.375000
 30
0.000000
 10
93.525000
 20
209.375000
 30
0.000000
 10
94.200000
 20
209.375000
 30
0.000000
 10
94.875000
 20
210.375000
 30
0.000000
 10
95.525000
 20
210.375000
 30
0.000000
 10
96.200000
 20
210.375000
 30
0.000000
 10
96.875000
 20
209.375000
 30
0.000000
 10
97.525000
 20
209.375000
 30
0.000000
 10
98.200000
 20
209.375000
 30
0.000000
 10
98.875000
 20
210.375000
 30
0.000000
 10
99.525000
 20
210.375000
 30
0.000000
 10
100.200000
 20
210.375000
 30
0.000000
 10
100.875000
 20
209.375000
 30
0.000000
 10
101.525000
 20
209.375000
 30
0.000000
 10
102.200000
 20
209.375000
 30
0.000000
 10
102.875000
 20
210.375000
 30
0.000000
 10
103.525000
 20
210.375000
 30
0.000000
 10
104.200000
 20
210.375000
 30
0.000000
 10
105.200000
 20
209.525000
 30
0.000000
 10
105.525000
 20
209.375000
 30
0.000000
  0
MTEXT
  5
ab8
100
AcDbEntity
  8
0
100
AcDbMText
 10
107.850000
 20
278.075000
 40
1.875000
 41
13.500000
 71
     1
 72
     5
  1
\fＭＳ ゴシック|b0|i0|c128|p49;\H1.875;\T1.4384;ロッ\T1.7562;ド
 44
1.420909
 73
     1
  7
BIGFONT
  0
MTEXT
  5
abb
100
AcDbEntity
  8
0
100
AcDbMText
 10
107.825000
 20
274.350000
 40
1.875000
 41
40.500000
 71
     1
 72
     5
  1
\fＭＳ ゴシック|b0|i0|c128|p49;\H1.875;\T1.4384;ロッドカップリン\T1.7562;グ
 44
1.420909
 73
     1
  7
BIGFONT
  0
MTEXT
  5
abe
100
AcDbEntity
  8
0
100
AcDbMText
 10
110.325000
 20
270.200000
 40
1.875000
 41
36.000000
 71
     1
 72
     5
  1
\fＭＳ ゴシック|b0|i0|c128|p49;\H1.875;\T1.4384;サンプラーヘッ\T1.7562;ド
 44
1.420909
 73
     1
  7
BIGFONT
  0
MTEXT
  5
ac1
100
AcDbEntity
  8
0
100
AcDbMText
 10
112.025000
 20
266.225000
 40
1.875000
 41
22.500000
 71
     1
 72
     5
  1
\fＭＳ ゴシック|b0|i0|c128|p49;\H1.875;\T1.4384;スプリン\T1.7562;グ
 44
1.420909
 73
     1
  7
BIGFONT
  0
MTEXT
  5
ac4
100
AcDbEntity
  8
0
100
AcDbMText
 10
112.850000
 20
262.600000
 40
1.875000
 41
45.000000
 71
     1
 72
     5
  1
\fＭＳ ゴシック|b0|i0|c128|p49;\H1.875;\T1.4384;ボールコーンクラン\T1.7562;プ
 44
1.420909
 73
     1
  7
BIGFONT
  0
MTEXT
  5
ac7
100
AcDbEntity
  8
0
100
AcDbMText
 10
118.275000
 20
258.250000
 40
1.875000
 41
22.500000
 71
     1
 72
     5
  1
\fＭＳ ゴシック|b0|i0|c128|p49;\H1.875;\T1.4384;スパイダ\T1.1617;ー
 44
1.420909
 73
     1
  7
BIGFONT
  0
MTEXT
  5
aca
100
AcDbEntity
  8
0
100
AcDbMText
 10
120.750000
 20
253.100000
 40
1.875000
 41
18.000000
 71
     1
 72
     5
  1
\fＭＳ ゴシック|b0|i0|c128|p49;\H1.875;\T1.4384;アダプ\T1.7562;タ
 44
1.420909
 73
     1
  7
BIGFONT
  0
MTEXT
  5
acd
100
AcDbEntity
  8
0
100
AcDbMText
 10
116.825000
 20
246.475000
 40
1.875000
 41
45.000000
 71
     1
 72
     5
  1
\fＭＳ ゴシック|b0|i0|c128|p49;\H1.875;\T1.4384;サンフ　リンク　チューフ　取付ヒ　\T1.1617;ス
 44
1.420909
 73
     1
  7
BIGFONT
  0
MTEXT
  5
ad0
100
AcDbEntity
  8
0
100
AcDbMText
 10
120.775000
 20
227.100000
 40
1.875000
 41
33.750000
 71
     1
 72
     5
  1
\fＭＳ ゴシック|b0|i0|c128|p49;\H1.875;\T1.4384;(内径75±0.5mm\T1.0075;)
 44
1.420909
 73
     1
  7
BIGFONT
  0
MTEXT
  5
ad3
100
AcDbEntity
  8
0
100
AcDbMText
 10
117.525000
 20
201.000000
 40
1.875000
 41
31.500000
 71
     1
 72
     5
  1
\fＭＳ ゴシック|b0|i0|c128|p49;\H1.875;\T1.4384;ピストンロッ\T1.7562;ド
 44
1.420909
 73
     1
  7
BIGFONT
  0
MTEXT
  5
ad6
100
AcDbEntity
  8
0
100
AcDbMText
 10
116.225000
 20
185.150000
 40
1.875000
 41
27.000000
 71
     1
 72
     5
  1
\fＭＳ ゴシック|b0|i0|c128|p49;\H1.875;\T1.4384;通気用ボル\T1.7562;ト
 44
1.420909
 73
     1
  7
BIGFONT
  0
MTEXT
  5
ad9
100
AcDbEntity
  8
0
100
AcDbMText
 10
116.650000
 20
181.075000
 40
1.875000
 41
33.750000
 71
     1
 72
     5
  1
\fＭＳ ゴシック|b0|i0|c128|p49;\H1.875;\T1.4384;ハ　ッキンク　セットスクリュ\T1.7562;ー
 44
1.420909
 73
     1
  7
BIGFONT
  0
MTEXT
  5
adc
100
AcDbEntity
  8
0
100
AcDbMText
 10
116.500000
 20
177.100000
 40
1.875000
 41
15.750000
 71
     1
 72
     5
  1
\fＭＳ ゴシック|b0|i0|c128|p49;\H1.875;\T1.4384;ハ　ッキンク\T1.7562;　
 44
1.420909
 73
     1
  7
BIGFONT
  0
MTEXT
  5
adf
100
AcDbEntity
  8
0
100
AcDbMText
 10
116.625000
 20
170.275000
 40
1.875000
 41
20.250000
 71
     1
 72
     5
  1
\fＭＳ ゴシック|b0|i0|c128|p49;\H1.875;\T1.4384;ヒ　ストンヘ　ー\T1.1617;ス
 44
1.420909
 73
     1
  7
BIGFONT
  0
LWPOLYLINE
  5
ae2
100
AcDbEntity
  8
0
100
AcDbPolyline
 90
     3
 70
     0
 43
0.200000
 10
94.525000
 20
260.425000
 10
93.475000
 20
263.400000
 10
90.075000
 20
263.400000
  0
LINE
  5
aeb
100
AcDbEntity
  8
0
370
    20
100
AcDbLine
 10
92.075000
 20
261.300000
 11
88.275000
 21
261.300000
  0
LWPOLYLINE
  5
aee
100
AcDbEntity
  8
0
100
AcDbPolyline
 90
    13
 70
     0
 43
0.200000
 10
91.975000
 20
261.325000
 10
91.975000
 20
260.875000
 10
92.450000
 20
260.875000
 10
92.450000
 20
260.475000
 10
91.975000
 20
260.475000
 10
91.975000
 20
260.050000
 10
92.450000
 20
260.050000
 10
92.450000
 20
259.625000
 10
91.975000
 20
259.625000
 10
91.975000
 20
259.175000
 10
92.450000
 20
259.175000
 10
92.450000
 20
258.750000
 10
92.350000
 20
258.750000
  0
LINE
  5
b0b
100
AcDbEntity
  8
0
370
    20
100
AcDbLine
 10
92.450000
 20
258.775000
 11
94.500000
 21
258.775000
  0
CIRCLE
  5
b0e
100
AcDbEntity
  8
0
370
    20
100
AcDbCircle
 10
93.900000
 20
262.900000
 40
0.350000
  0
LWPOLYLINE
  5
b11
100
AcDbEntity
  8
0
100
AcDbPolyline
 90
    15
 70
     0
 43
0.200000
 10
97.500000
 20
268.650000
 10
98.475000
 20
268.650000
 10
98.475000
 20
268.950000
 10
98.075000
 20
268.950000
 10
98.075000
 20
269.275000
 10
98.525000
 20
269.275000
 10
98.525000
 20
269.575000
 10
98.025000
 20
269.575000
 10
98.025000
 20
269.900000
 10
98.525000
 20
269.900000
 10
98.525000
 20
270.250000
 10
98.075000
 20
270.250000
 10
98.075000
 20
270.550000
 10
98.925000
 20
270.550000
 10
99.100000
 20
270.525000
  0
LWPOLYLINE
  5
b32
100
AcDbEntity
  8
0
100
AcDbPolyline
 90
     3
 70
     0
 43
0.200000
 10
98.875000
 20
270.550000
 10
99.925000
 20
270.550000
 10
102.975000
 20
264.150000
  0
LWPOLYLINE
  5
b3b
100
AcDbEntity
  8
0
100
AcDbPolyline
 90
     5
 70
     0
 43
0.200000
 10
97.500000
 20
267.075000
 10
98.250000
 20
267.075000
 10
98.250000
 20
265.950000
 10
98.250000
 20
265.525000
 10
99.325000
 20
265.525000
  0
LWPOLYLINE
  5
b48
100
AcDbEntity
  8
0
100
AcDbPolyline
 90
     4
 70
     0
 43
0.200000
 10
97.425000
 20
268.575000
 10
96.950000
 20
268.575000
 10
96.950000
 20
267.075000
 10
97.500000
 20
267.075000
  0
LWPOLYLINE
  5
b53
100
AcDbEntity
  8
0
100
AcDbPolyline
 90
    12
 70
     0
 43
0.200000
 10
101.100000
 20
263.450000
 10
101.100000
 20
263.000000
 10
100.625000
 20
263.000000
 10
100.625000
 20
262.600000
 10
101.100000
 20
262.600000
 10
101.100000
 20
262.175000
 10
100.625000
 20
262.175000
 10
100.625000
 20
261.750000
 10
101.100000
 20
261.750000
 10
101.100000
 20
261.300000
 10
100.625000
 20
261.300000
 10
100.625000
 20
261.275000
  0
LINE
  5
b6e
100
AcDbEntity
  8
0
370
    20
100
AcDbLine
 10
99.300000
 20
263.325000
 11
99.300000
 21
265.525000
  0
LWPOLYLINE
  5
b71
100
AcDbEntity
  8
0
100
AcDbPolyline
 90
     5
 70
     0
 43
0.200000
 10
96.800000
 20
264.350000
 10
97.975000
 20
264.350000
 10
97.975000
 20
264.050000
 10
97.425000
 20
264.050000
 10
96.800000
 20
261.425000
  0
LWPOLYLINE
  5
b7e
100
AcDbEntity
  8
0
100
AcDbPolyline
 90
     3
 70
     0
 43
0.200000
 10
96.725000
 20
260.425000
 10
97.775000
 20
263.400000
 10
101.175000
 20
263.400000
  0
LINE
  5
b87
100
AcDbEntity
  8
0
370
    20
100
AcDbLine
 10
99.175000
 20
261.300000
 11
102.975000
 21
261.300000
  0
LWPOLYLINE
  5
b8a
100
AcDbEntity
  8
0
100
AcDbPolyline
 90
    13
 70
     0
 43
0.200000
 10
99.275000
 20
261.325000
 10
99.275000
 20
260.875000
 10
98.800000
 20
260.875000
 10
98.800000
 20
260.475000
 10
99.275000
 20
260.475000
 10
99.275000
 20
260.050000
 10
98.800000
 20
260.050000
 10
98.800000
 20
259.625000
 10
99.275000
 20
259.625000
 10
99.275000
 20
259.175000
 10
98.800000
 20
259.175000
 10
98.800000
 20
258.750000
 10
98.900000
 20
258.750000
  0
LINE
  5
ba7
100
AcDbEntity
  8
0
370
    20
100
AcDbLine
 10
98.800000
 20
258.775000
 11
96.750000
 21
258.775000
  0
CIRCLE
  5
baa
100
AcDbEntity
  8
0
370
    20
100
AcDbCircle
 10
97.350000
 20
262.900000
 40
0.350000
  0
LINE
  5
bad
100
AcDbEntity
  8
0
370
    20
100
AcDbLine
 10
102.975000
 20
254.500000
 11
102.975000
 21
264.200000
  0
HATCH
  5
bb0
330
F6
100
AcDbEntity
  8
0
100
AcDbHatch
 10
0.0
 20
0.0
 30
0.0
210
0.0
220
0.0
230
1.0
  2
SOLID
 70
     1
 71
     0
 91
     1
 92
     7
 72
     0
 73
     1
 93
    31
 10
91.400000
 20
270.525000
 10
93.175000
 20
270.525000
 10
93.175000
 20
270.275000
 10
92.725000
 20
270.275000
 10
92.725000
 20
269.850000
 10
93.200000
 20
269.850000
 10
93.200000
 20
269.550000
 10
92.725000
 20
269.550000
 10
92.725000
 20
269.225000
 10
93.200000
 20
269.225000
 10
93.200000
 20
269.000000
 10
92.775000
 20
269.000000
 10
92.775000
 20
268.650000
 10
94.250000
 20
268.650000
 10
94.250000
 20
267.075000
 10
93.000000
 20
267.075000
 10
93.000000
 20
265.525000
 10
92.000000
 20
265.525000
 10
92.000000
 20
263.400000
 10
90.150000
 20
263.400000
 10
90.150000
 20
262.975000
 10
90.625000
 20
262.975000
 10
90.625000
 20
262.600000
 10
90.200000
 20
262.600000
 10
90.200000
 20
262.150000
 10
90.625000
 20
262.150000
 10
90.625000
 20
261.725000
 10
90.150000
 20
261.725000
 10
90.150000
 20
261.300000
 10
88.275000
 20
261.300000
 10
88.275000
 20
264.200000
 97
     1
330
bb3
 75
     0
 76
     1
 47
0.651316
 98
     1
 10
0.0
 20
0.0
  0
LWPOLYLINE
  5
bb3
330
F6
100
AcDbEntity
  8
0
100
AcDbPolyline
 90
    32
 70
     0
 43
0.200000
 10
91.400000
 20
270.525000
 10
93.175000
 20
270.525000
 10
93.175000
 20
270.275000
 10
92.725000
 20
270.275000
 10
92.725000
 20
269.850000
 10
93.200000
 20
269.850000
 10
93.200000
 20
269.550000
 10
92.725000
 20
269.550000
 10
92.725000
 20
269.225000
 10
93.200000
 20
269.225000
 10
93.200000
 20
269.000000
 10
92.775000
 20
269.000000
 10
92.775000
 20
268.650000
 10
94.250000
 20
268.650000
 10
94.250000
 20
267.075000
 10
93.000000
 20
267.075000
 10
93.000000
 20
265.525000
 10
92.000000
 20
265.525000
 10
92.000000
 20
263.400000
 10
90.150000
 20
263.400000
 10
90.150000
 20
262.975000
 10
90.625000
 20
262.975000
 10
90.625000
 20
262.600000
 10
90.200000
 20
262.600000
 10
90.200000
 20
262.150000
 10
90.625000
 20
262.150000
 10
90.625000
 20
261.725000
 10
90.150000
 20
261.725000
 10
90.150000
 20
261.300000
 10
88.275000
 20
261.300000
 10
88.275000
 20
264.200000
 10
91.400000
 20
270.525000
  0
HATCH
  5
bf6
330
F6
100
AcDbEntity
  8
0
100
AcDbHatch
 10
0.0
 20
0.0
 30
0.0
210
0.0
220
0.0
230
1.0
  2
SOLID
 70
     1
 71
     0
 91
     1
 92
     7
 72
     0
 73
     1
 93
    31
 10
98.125000
 20
270.525000
 10
99.925000
 20
270.525000
 10
103.000000
 20
264.150000
 10
103.000000
 20
261.350000
 10
101.050000
 20
261.350000
 10
101.050000
 20
261.700000
 10
100.675000
 20
261.700000
 10
100.675000
 20
262.125000
 10
101.125000
 20
262.125000
 10
101.125000
 20
262.550000
 10
100.625000
 20
262.550000
 10
100.625000
 20
262.975000
 10
101.125000
 20
262.975000
 10
101.125000
 20
263.375000
 10
99.325000
 20
263.375000
 10
99.325000
 20
265.475000
 10
98.275000
 20
265.475000
 10
98.275000
 20
267.075000
 10
96.950000
 20
267.075000
 10
96.950000
 20
268.600000
 10
98.475000
 20
268.600000
 10
98.475000
 20
269.000000
 10
98.075000
 20
269.000000
 10
98.075000
 20
269.275000
 10
98.525000
 20
269.275000
 10
98.525000
 20
269.575000
 10
98.050000
 20
269.575000
 10
98.050000
 20
269.925000
 10
98.475000
 20
269.925000
 10
98.475000
 20
270.275000
 10
98.125000
 20
270.275000
 97
     1
330
bf9
 75
     0
 76
     1
 47
0.651316
 98
     1
 10
0.0
 20
0.0
  0
LWPOLYLINE
  5
bf9
330
F6
100
AcDbEntity
  8
0
100
AcDbPolyline
 90
    32
 70
     0
 43
0.200000
 10
98.125000
 20
270.525000
 10
99.925000
 20
270.525000
 10
103.000000
 20
264.150000
 10
103.000000
 20
261.350000
 10
101.050000
 20
261.350000
 10
101.050000
 20
261.700000
 10
100.675000
 20
261.700000
 10
100.675000
 20
262.125000
 10
101.125000
 20
262.125000
 10
101.125000
 20
262.550000
 10
100.625000
 20
262.550000
 10
100.625000
 20
262.975000
 10
101.125000
 20
262.975000
 10
101.125000
 20
263.375000
 10
99.325000
 20
263.375000
 10
99.325000
 20
265.475000
 10
98.275000
 20
265.475000
 10
98.275000
 20
267.075000
 10
96.950000
 20
267.075000
 10
96.950000
 20
268.600000
 10
98.475000
 20
268.600000
 10
98.475000
 20
269.000000
 10
98.075000
 20
269.000000
 10
98.075000
 20
269.275000
 10
98.525000
 20
269.275000
 10
98.525000
 20
269.575000
 10
98.050000
 20
269.575000
 10
98.050000
 20
269.925000
 10
98.475000
 20
269.925000
 10
98.475000
 20
270.275000
 10
98.125000
 20
270.275000
 10
98.125000
 20
270.525000
  0
HATCH
  5
c3c
330
F6
100
AcDbEntity
  8
0
100
AcDbHatch
 10
0.0
 20
0.0
 30
0.0
210
0.0
220
0.0
230
1.0
  2
SOLID
 70
     1
 71
     0
 91
     1
 92
     7
 72
     0
 73
     1
 93
    19
 10
88.275000
 20
261.275000
 10
92.000000
 20
261.275000
 10
92.000000
 20
260.900000
 10
92.500000
 20
260.900000
 10
92.500000
 20
260.525000
 10
92.000000
 20
260.525000
 10
92.000000
 20
260.025000
 10
92.450000
 20
260.025000
 10
92.450000
 20
259.625000
 10
92.000000
 20
259.625000
 10
92.000000
 20
259.200000
 10
92.450000
 20
259.200000
 10
92.450000
 20
258.800000
 10
94.525000
 20
258.800000
 10
94.525000
 20
257.400000
 10
91.950000
 20
257.400000
 10
91.950000
 20
256.925000
 10
88.250000
 20
256.925000
 10
88.250000
 20
261.275000
 97
     1
330
c3f
 75
     0
 76
     1
 47
0.651316
 98
     1
 10
0.0
 20
0.0
  0
LWPOLYLINE
  5
c3f
330
F6
100
AcDbEntity
  8
0
100
AcDbPolyline
 90
    20
 70
     0
 43
0.200000
 10
88.275000
 20
261.275000
 10
92.000000
 20
261.275000
 10
92.000000
 20
260.900000
 10
92.500000
 20
260.900000
 10
92.500000
 20
260.525000
 10
92.000000
 20
260.525000
 10
92.000000
 20
260.025000
 10
92.450000
 20
260.025000
 10
92.450000
 20
259.625000
 10
92.000000
 20
259.625000
 10
92.000000
 20
259.200000
 10
92.450000
 20
259.200000
 10
92.450000
 20
258.800000
 10
94.525000
 20
258.800000
 10
94.525000
 20
257.400000
 10
91.950000
 20
257.400000
 10
91.950000
 20
256.925000
 10
88.250000
 20
256.925000
 10
88.250000
 20
261.275000
 10
88.275000
 20
261.275000
  0
HATCH
  5
c6a
330
F6
100
AcDbEntity
  8
0
100
AcDbHatch
 10
0.0
 20
0.0
 30
0.0
210
0.0
220
0.0
230
1.0
  2
SOLID
 70
     1
 71
     0
 91
     1
 92
     7
 72
     0
 73
     1
 93
    19
 10
102.975000
 20
261.300000
 10
99.225000
 20
261.300000
 10
99.225000
 20
260.900000
 10
98.825000
 20
260.900000
 10
98.825000
 20
260.475000
 10
99.300000
 20
260.475000
 10
99.300000
 20
260.050000
 10
98.750000
 20
260.050000
 10
98.750000
 20
259.625000
 10
99.250000
 20
259.625000
 10
99.250000
 20
259.200000
 10
98.825000
 20
259.200000
 10
98.825000
 20
258.800000
 10
96.750000
 20
258.800000
 10
96.750000
 20
257.425000
 10
99.325000
 20
257.425000
 10
99.325000
 20
256.900000
 10
103.000000
 20
256.900000
 10
103.000000
 20
261.300000
 97
     1
330
c6d
 75
     0
 76
     1
 47
0.651316
 98
     1
 10
0.0
 20
0.0
  0
LWPOLYLINE
  5
c6d
330
F6
100
AcDbEntity
  8
0
100
AcDbPolyline
 90
    20
 70
     0
 43
0.200000
 10
102.975000
 20
261.300000
 10
99.225000
 20
261.300000
 10
99.225000
 20
260.900000
 10
98.825000
 20
260.900000
 10
98.825000
 20
260.475000
 10
99.300000
 20
260.475000
 10
99.300000
 20
260.050000
 10
98.750000
 20
260.050000
 10
98.750000
 20
259.625000
 10
99.250000
 20
259.625000
 10
99.250000
 20
259.200000
 10
98.825000
 20
259.200000
 10
98.825000
 20
258.800000
 10
96.750000
 20
258.800000
 10
96.750000
 20
257.425000
 10
99.325000
 20
257.425000
 10
99.325000
 20
256.900000
 10
103.000000
 20
256.900000
 10
103.000000
 20
261.300000
 10
102.975000
 20
261.300000
  0
HATCH
  5
c98
330
F6
100
AcDbEntity
  8
0
100
AcDbHatch
 10
0.0
 20
0.0
 30
0.0
210
0.0
220
0.0
230
1.0
  2
SOLID
 70
     1
 71
     0
 91
     1
 92
     7
 72
     0
 73
     1
 93
    25
 10
90.150000
 20
263.375000
 10
93.475000
 20
263.375000
 10
94.525000
 20
260.525000
 10
94.525000
 20
258.775000
 10
92.500000
 20
258.775000
 10
92.500000
 20
259.150000
 10
91.950000
 20
259.150000
 10
91.950000
 20
259.625000
 10
92.450000
 20
259.625000
 10
92.450000
 20
260.050000
 10
92.025000
 20
260.050000
 10
92.025000
 20
260.450000
 10
92.500000
 20
260.450000
 10
92.500000
 20
260.875000
 10
92.000000
 20
260.875000
 10
92.000000
 20
261.275000
 10
90.125000
 20
261.275000
 10
90.125000
 20
261.725000
 10
90.625000
 20
261.725000
 10
90.625000
 20
262.125000
 10
90.150000
 20
262.125000
 10
90.150000
 20
262.600000
 10
90.625000
 20
262.600000
 10
90.625000
 20
262.950000
 10
90.150000
 20
262.950000
 97
     1
330
c9b
 75
     0
 76
     1
 47
0.651316
 98
     1
 10
0.0
 20
0.0
  0
LWPOLYLINE
  5
c9b
330
F6
100
AcDbEntity
  8
0
100
AcDbPolyline
 90
    26
 70
     0
 43
0.200000
 10
90.150000
 20
263.375000
 10
93.475000
 20
263.375000
 10
94.525000
 20
260.525000
 10
94.525000
 20
258.775000
 10
92.500000
 20
258.775000
 10
92.500000
 20
259.150000
 10
91.950000
 20
259.150000
 10
91.950000
 20
259.625000
 10
92.450000
 20
259.625000
 10
92.450000
 20
260.050000
 10
92.025000
 20
260.050000
 10
92.025000
 20
260.450000
 10
92.500000
 20
260.450000
 10
92.500000
 20
260.875000
 10
92.000000
 20
260.875000
 10
92.000000
 20
261.275000
 10
90.125000
 20
261.275000
 10
90.125000
 20
261.725000
 10
90.625000
 20
261.725000
 10
90.625000
 20
262.125000
 10
90.150000
 20
262.125000
 10
90.150000
 20
262.600000
 10
90.625000
 20
262.600000
 10
90.625000
 20
262.950000
 10
90.150000
 20
262.950000
 10
90.150000
 20
263.375000
  0
HATCH
  5
cd2
330
F6
100
AcDbEntity
  8
0
100
AcDbHatch
 10
0.0
 20
0.0
 30
0.0
210
0.0
220
0.0
230
1.0
  2
SOLID
 70
     1
 71
     0
 91
     1
 92
     7
 72
     0
 73
     1
 93
    28
 10
97.775000
 20
263.400000
 10
97.750000
 20
263.375000
 10
96.750000
 20
260.525000
 10
96.750000
 20
258.775000
 10
98.800000
 20
258.775000
 10
98.800000
 20
259.150000
 10
99.250000
 20
259.150000
 10
99.250000
 20
259.625000
 10
98.800000
 20
259.625000
 10
98.800000
 20
260.025000
 10
99.250000
 20
260.025000
 10
99.250000
 20
260.450000
 10
98.825000
 20
260.450000
 10
98.825000
 20
260.875000
 10
99.300000
 20
260.875000
 10
99.300000
 20
261.300000
 10
101.125000
 20
261.300000
 10
101.125000
 20
261.700000
 10
100.625000
 20
261.700000
 10
100.625000
 20
262.150000
 10
101.050000
 20
262.150000
 10
101.050000
 20
262.550000
 10
100.675000
 20
262.550000
 10
100.675000
 20
263.025000
 10
101.050000
 20
263.025000
 10
101.050000
 20
263.375000
 10
97.750000
 20
263.375000
 10
97.725000
 20
263.375000
 97
     1
330
cd5
 75
     0
 76
     1
 47
0.651316
 98
     1
 10
0.0
 20
0.0
  0
LWPOLYLINE
  5
cd5
330
F6
100
AcDbEntity
  8
0
100
AcDbPolyline
 90
    29
 70
     0
 43
0.200000
 10
97.775000
 20
263.400000
 10
97.750000
 20
263.375000
 10
96.750000
 20
260.525000
 10
96.750000
 20
258.775000
 10
98.800000
 20
258.775000
 10
98.800000
 20
259.150000
 10
99.250000
 20
259.150000
 10
99.250000
 20
259.625000
 10
98.800000
 20
259.625000
 10
98.800000
 20
260.025000
 10
99.250000
 20
260.025000
 10
99.250000
 20
260.450000
 10
98.825000
 20
260.450000
 10
98.825000
 20
260.875000
 10
99.300000
 20
260.875000
 10
99.300000
 20
261.300000
 10
101.125000
 20
261.300000
 10
101.125000
 20
261.700000
 10
100.625000
 20
261.700000
 10
100.625000
 20
262.150000
 10
101.050000
 20
262.150000
 10
101.050000
 20
262.550000
 10
100.675000
 20
262.550000
 10
100.675000
 20
263.025000
 10
101.050000
 20
263.025000
 10
101.050000
 20
263.375000
 10
97.750000
 20
263.375000
 10
97.725000
 20
263.375000
 10
97.775000
 20
263.400000
  0
LWPOLYLINE
  5
d12
100
AcDbEntity
  8
0
100
AcDbPolyline
 90
     3
 70
     0
 43
0.200000
 10
107.200000
 20
275.600000
 10
99.275000
 20
275.600000
 10
101.775000
 20
276.025000
  0
LWPOLYLINE
  5
d1b
100
AcDbEntity
  8
0
100
AcDbPolyline
 90
     3
 70
     0
 43
0.200000
 10
107.075000
 20
271.850000
 10
99.275000
 20
271.850000
 10
101.675000
 20
272.275000
  0
LWPOLYLINE
  5
d24
100
AcDbEntity
  8
0
100
AcDbPolyline
 90
     3
 70
     0
 43
0.200000
 10
109.900000
 20
267.900000
 10
100.525000
 20
267.275000
 10
103.450000
 20
267.775000
  0
LWPOLYLINE
  5
d2d
100
AcDbEntity
  8
0
100
AcDbPolyline
 90
     3
 70
     0
 43
0.200000
 10
111.150000
 20
263.825000
 10
97.300000
 20
264.875000
 10
99.575000
 20
265.075000
  0
LWPOLYLINE
  5
d36
100
AcDbEntity
  8
0
100
AcDbPolyline
 90
     3
 70
     0
 43
0.200000
 10
112.400000
 20
259.975000
 10
96.975000
 20
263.625000
 10
98.750000
 20
263.625000
  0
LWPOLYLINE
  5
d3f
100
AcDbEntity
  8
0
100
AcDbPolyline
 90
     3
 70
     0
 43
0.200000
 10
117.650000
 20
255.900000
 10
97.600000
 20
260.600000
 10
100.200000
 20
260.400000
  0
LWPOLYLINE
  5
d48
100
AcDbEntity
  8
0
100
AcDbPolyline
 90
     3
 70
     0
 43
0.200000
 10
119.700000
 20
250.750000
 10
100.425000
 20
248.300000
 10
102.200000
 20
249.125000
  0
LWPOLYLINE
  5
d51
100
AcDbEntity
  8
0
100
AcDbPolyline
 90
     3
 70
     0
 43
0.200000
 10
116.025000
 20
244.125000
 10
103.025000
 20
245.600000
 10
105.625000
 20
246.025000
  0
LWPOLYLINE
  5
d5a
100
AcDbEntity
  8
0
100
AcDbPolyline
 90
     3
 70
     0
 43
0.200000
 10
115.150000
 20
167.950000
 10
99.450000
 20
169.350000
 10
102.575000
 20
169.500000
  0
LWPOLYLINE
  5
d63
100
AcDbEntity
  8
0
100
AcDbPolyline
 90
     3
 70
     0
 43
0.200000
 10
115.325000
 20
174.650000
 10
101.100000
 20
173.400000
 10
104.375000
 20
174.350000
  0
LWPOLYLINE
  5
d6c
100
AcDbEntity
  8
0
100
AcDbPolyline
 90
     3
 70
     0
 43
0.200000
 10
115.475000
 20
178.575000
 10
100.325000
 20
175.750000
 10
103.600000
 20
176.850000
  0
LWPOLYLINE
  5
d75
100
AcDbEntity
  8
0
100
AcDbPolyline
 90
     3
 70
     0
 43
0.200000
 10
115.475000
 20
182.475000
 10
99.075000
 20
178.875000
 10
101.575000
 20
180.125000
  0
LWPOLYLINE
  5
d7e
100
AcDbEntity
  8
0
100
AcDbPolyline
 90
     3
 70
     0
 43
0.200000
 10
116.250000
 20
198.425000
 10
96.725000
 20
193.600000
 10
99.375000
 20
195.025000
  0
LINE
  5
d87
100
AcDbEntity
  8
0
370
     0
100
AcDbLine
 10
94.525000
 20
276.225000
 11
96.725000
 21
273.875000
  0
LINE
  5
d8a
100
AcDbEntity
  8
0
370
     0
100
AcDbLine
 10
94.525000
 20
275.450000
 11
96.725000
 21
273.100000
  0
LINE
  5
d8d
100
AcDbEntity
  8
0
370
     0
100
AcDbLine
 10
94.525000
 20
271.925000
 11
96.725000
 21
269.575000
  0
LINE
  5
d90
100
AcDbEntity
  8
0
370
     0
100
AcDbLine
 10
94.525000
 20
271.150000
 11
96.725000
 21
268.800000
  0
LINE
  5
d93
100
AcDbEntity
  8
0
370
     0
100
AcDbLine
 10
94.525000
 20
267.625000
 11
96.725000
 21
265.275000
  0
LINE
  5
d96
100
AcDbEntity
  8
0
370
     0
100
AcDbLine
 10
94.525000
 20
266.850000
 11
96.725000
 21
264.500000
  0
LINE
  5
d99
100
AcDbEntity
  8
0
370
     0
100
AcDbLine
 10
94.525000
 20
263.325000
 11
96.725000
 21
260.975000
  0
LINE
  5
d9c
100
AcDbEntity
  8
0
370
     0
100
AcDbLine
 10
94.525000
 20
262.550000
 11
96.725000
 21
260.200000
  0
LINE
  5
d9f
100
AcDbEntity
  8
0
370
     0
100
AcDbLine
 10
94.525000
 20
259.025000
 11
96.725000
 21
256.675000
  0
LINE
  5
da2
100
AcDbEntity
  8
0
370
     0
100
AcDbLine
 10
94.525000
 20
258.250000
 11
96.725000
 21
255.900000
  0
LINE
  5
da5
100
AcDbEntity
  8
0
370
     0
100
AcDbLine
 10
94.525000
 20
254.725000
 11
96.725000
 21
252.375000
  0
LINE
  5
da8
100
AcDbEntity
  8
0
370
     0
100
AcDbLine
 10
94.525000
 20
253.950000
 11
96.725000
 21
251.600000
  0
LINE
  5
dab
100
AcDbEntity
  8
0
370
     0
100
AcDbLine
 10
94.525000
 20
250.425000
 11
96.725000
 21
248.075000
  0
LINE
  5
dae
100
AcDbEntity
  8
0
370
     0
100
AcDbLine
 10
94.525000
 20
249.650000
 11
96.725000
 21
247.300000
  0
LINE
  5
db1
100
AcDbEntity
  8
0
370
     0
100
AcDbLine
 10
94.525000
 20
246.125000
 11
96.725000
 21
243.775000
  0
LINE
  5
db4
100
AcDbEntity
  8
0
370
     0
100
AcDbLine
 10
94.525000
 20
245.350000
 11
96.725000
 21
243.000000
  0
LINE
  5
db7
100
AcDbEntity
  8
0
370
     0
100
AcDbLine
 10
94.525000
 20
241.825000
 11
96.725000
 21
239.475000
  0
LINE
  5
dba
100
AcDbEntity
  8
0
370
     0
100
AcDbLine
 10
94.525000
 20
241.050000
 11
96.725000
 21
238.700000
  0
LINE
  5
dbd
100
AcDbEntity
  8
0
370
     0
100
AcDbLine
 10
94.525000
 20
237.525000
 11
96.725000
 21
235.175000
  0
LINE
  5
dc0
100
AcDbEntity
  8
0
370
     0
100
AcDbLine
 10
94.525000
 20
236.750000
 11
96.725000
 21
234.400000
  0
LINE
  5
dc3
100
AcDbEntity
  8
0
370
     0
100
AcDbLine
 10
94.525000
 20
233.225000
 11
96.725000
 21
230.875000
  0
LINE
  5
dc6
100
AcDbEntity
  8
0
370
     0
100
AcDbLine
 10
94.525000
 20
232.450000
 11
96.725000
 21
230.100000
  0
LINE
  5
dc9
100
AcDbEntity
  8
0
370
     0
100
AcDbLine
 10
94.525000
 20
229.025000
 11
96.725000
 21
226.675000
  0
LINE
  5
dcc
100
AcDbEntity
  8
0
370
     0
100
AcDbLine
 10
94.525000
 20
228.250000
 11
96.725000
 21
225.900000
  0
LINE
  5
dcf
100
AcDbEntity
  8
0
370
     0
100
AcDbLine
 10
94.525000
 20
224.825000
 11
96.725000
 21
222.475000
  0
LINE
  5
dd2
100
AcDbEntity
  8
0
370
     0
100
AcDbLine
 10
94.525000
 20
224.050000
 11
96.725000
 21
221.700000
  0
LINE
  5
dd5
100
AcDbEntity
  8
0
370
     0
100
AcDbLine
 10
94.525000
 20
220.625000
 11
96.725000
 21
218.275000
  0
LINE
  5
dd8
100
AcDbEntity
  8
0
370
     0
100
AcDbLine
 10
94.525000
 20
219.850000
 11
96.725000
 21
217.500000
  0
LINE
  5
ddb
100
AcDbEntity
  8
0
370
     0
100
AcDbLine
 10
94.525000
 20
216.425000
 11
96.725000
 21
214.075000
  0
LINE
  5
dde
100
AcDbEntity
  8
0
370
     0
100
AcDbLine
 10
94.525000
 20
215.650000
 11
96.725000
 21
213.300000
  0
LINE
  5
de1
100
AcDbEntity
  8
0
370
     0
100
AcDbLine
 10
94.525000
 20
208.025000
 11
96.725000
 21
205.675000
  0
LINE
  5
de4
100
AcDbEntity
  8
0
370
     0
100
AcDbLine
 10
94.525000
 20
207.250000
 11
96.725000
 21
204.900000
  0
LINE
  5
de7
100
AcDbEntity
  8
0
370
     0
100
AcDbLine
 10
94.525000
 20
203.825000
 11
96.725000
 21
201.475000
  0
LINE
  5
dea
100
AcDbEntity
  8
0
370
     0
100
AcDbLine
 10
94.525000
 20
203.050000
 11
96.725000
 21
200.700000
  0
LINE
  5
ded
100
AcDbEntity
  8
0
370
     0
100
AcDbLine
 10
94.525000
 20
199.625000
 11
96.725000
 21
197.275000
  0
LINE
  5
df0
100
AcDbEntity
  8
0
370
     0
100
AcDbLine
 10
94.525000
 20
198.850000
 11
96.725000
 21
196.500000
  0
LINE
  5
df3
100
AcDbEntity
  8
0
370
     0
100
AcDbLine
 10
94.525000
 20
195.425000
 11
96.725000
 21
193.075000
  0
LINE
  5
df6
100
AcDbEntity
  8
0
370
     0
100
AcDbLine
 10
94.525000
 20
194.650000
 11
96.725000
 21
192.300000
  0
LINE
  5
df9
100
AcDbEntity
  8
0
370
     0
100
AcDbLine
 10
94.525000
 20
191.225000
 11
96.725000
 21
188.875000
  0
LINE
  5
dfc
100
AcDbEntity
  8
0
370
     0
100
AcDbLine
 10
94.525000
 20
190.450000
 11
96.725000
 21
188.100000
  0
LINE
  5
dff
100
AcDbEntity
  8
0
370
     0
100
AcDbLine
 10
94.525000
 20
186.925000
 11
96.725000
 21
184.575000
  0
LINE
  5
e02
100
AcDbEntity
  8
0
370
     0
100
AcDbLine
 10
94.525000
 20
186.150000
 11
96.725000
 21
183.800000
  0
LINE
  5
e05
100
AcDbEntity
  8
0
370
     0
100
AcDbLine
 10
94.525000
 20
182.475000
 11
96.725000
 21
180.125000
  0
LINE
  5
e08
100
AcDbEntity
  8
0
370
     0
100
AcDbLine
 10
94.525000
 20
181.700000
 11
96.725000
 21
179.350000
  0
LINE
  5
e0b
100
AcDbEntity
  8
0
370
     0
100
AcDbLine
 10
96.475000
 20
176.000000
 11
94.525000
 21
178.325000
  0
LINE
  5
e0e
100
AcDbEntity
  8
0
370
     0
100
AcDbLine
 10
95.850000
 20
176.075000
 11
94.525000
 21
177.550000
  0
MTEXT
  5
e11
100
AcDbEntity
  8
0
100
AcDbMText
 10
36.900000
 20
161.250000
 40
2.381250
 41
102.870000
 71
     1
 72
     5
  1
\fＭＳ 明朝|b0|i0|c128|p17;\T1.0200;※全地連ボーリングハンドブックによる
 44
1.034881
 73
     1
  7
BIGFONT
  0
ENDSEC
  0
SECTION
  2
OBJECTS
  0
DICTIONARY
  5
e1c
100
AcDbDictionary
281
     1
  3
ACAD_COLOR
350
e1d
  3
ACAD_GROUP
350
e1e
  3
ACAD_LAYOUT
350
e1f
  3
ACAD_MATERIAL
350
e20
  3
ACAD_MLINESTYLE
350
e21
  3
CONTENTDICTIONARY
350
e27
  0
DICTIONARY
  5
e1d
102
{ACAD_REACTORS
330
e1c
102
}
330
e1c
100
AcDbDictionary
281
     1
  0
DICTIONARY
  5
e1e
102
{ACAD_REACTORS
330
e1c
102
}
330
e1c
100
AcDbDictionary
281
     1
  3
Layout1
350
e28
  3
Layout2
350
e29
  3
Model
350
e6c
  0
DICTIONARY
  5
e1f
102
{ACAD_REACTORS
330
e1c
102
}
330
e1c
100
AcDbDictionary
281
     1
  0
DICTIONARY
  5
e20
102
{ACAD_REACTORS
330
e1c
102
}
330
e1c
100
AcDbDictionary
281
     1
  0
DICTIONARY
  5
e21
102
{ACAD_REACTORS
330
e1c
102
}
330
e1c
100
AcDbDictionary
281
     1
  3
Standard
350
e2a
  0
DICTIONARY
  5
e22
102
{ACAD_REACTORS
330
e1c
102
}
330
e1c
100
AcDbDictionary
281
     1
  0
ACDBDICTIONARYWDFLT
  5
e23
102
{ACAD_REACTORS
330
e1c
102
}
330
e1c
100
AcDbDictionary
281
     1
  3
Normal
350
e6d
100
AcDbDictionaryWithDefault
340
e6d
  0
DICTIONARY
  5
e24
102
{ACAD_REACTORS
330
e1c
102
}
330
e1c
100
AcDbDictionary
281
     1
  3
Standard
350
e6e
  0
DICTIONARY
  5
e25
102
{ACAD_REACTORS
330
e1c
102
}
330
e1c
100
AcDbDictionary
281
     1
  3
CEPSNTYPE
350
e2c
  3
FINGERPRINTGUID
350
e2d
  3
HYPERLINKBASE
350
e2e
  3
INSUNITS
350
e2f
  3
LAYOUTDICT
350
e30
  3
LWETCUNION
350
e31
  3
PLOTSETDICT
350
e32
  3
PLOTSTYLNAMDICT
350
e33
  3
PSVPSCALE
350
e34
  3
PUCSBASE
350
e35
  3
PUCSORGBACK
350
e36
  3
PUCSORGBOTTOM
350
e37
  3
PUCSORGFRONT
350
e38
  3
PUCSORGLEFT
350
e39
  3
PUCSORGRIGHT
350
e3a
  3
PUCSORGTOP
350
e3b
  3
PUCSORTHOREF
350
e3c
  3
PUCSORTHOVIEW
350
e3d
  3
STYLESHEET
350
e3e
  3
TSTACKALIGN
350
e3f
  3
TSTACKSIZE
350
e40
  3
UCSBASE
350
e41
  3
UCSORGBACK
350
e42
  3
UCSORGBOTTOM
350
e43
  3
UCSORGFRONT
350
e44
  3
UCSORGLEFT
350
e45
  3
UCSORGRIGHT
350
e46
  3
UCSORGTOP
350
e47
  3
UCSORTHOREF
350
e48
  3
UCSORTHOVIEW
350
e49
  3
VERSIONGUID
350
e4a
  0
DICTIONARY
  5
e26
102
{ACAD_REACTORS
330
e1c
102
}
330
e1c
100
AcDbDictionary
281
     1
  3
CTABLESTYLE
350
e4b
  3
DIMASSOC
350
e4c
  3
HIDETEXT
350
e4d
  3
PROJECTNAME
350
e4e
  0
LAYOUT
  5
e27
102
{ACAD_XDICTIONARY
360
1132
102
}
102
{ACAD_REACTORS
330
e1d
102
}
330
e1d
100
AcDbPlotSettings
  1

  2

  4

  6

 40
0.000000
 41
0.000000
 42
0.000000
 43
0.000000
 44
0.000000
 45
0.000000
 46
0.000000
 47
0.000000
 48
0.000000
 49
0.000000
140
0.000000
141
0.000000
142
1.000000
143
1.000000
 70
   688
 72
     0
 73
     0
 74
     5
  7

 75
    16
147
1.000000
148
0.000000
149
0.000000
100
AcDbLayout
  1
Layout1
 70
     1
 71
     1
 10
0.000000
 20
0.000000
 11
197.100000
 21
283.100000
 12
0.000000
 22
0.000000
 32
0.000000
 14
100000000000000000000.000000
 24
100000000000000000000.000000
 34
100000000000000000000.000000
 15
-100000000000000000000.000000
 25
-100000000000000000000.000000
 35
-100000000000000000000.000000
146
0.000000
 13
0.000000
 23
0.000000
 33
0.000000
 16
1.000000
 26
0.000000
 36
0.000000
 17
0.000000
 27
1.000000
 37
0.000000
 76
     0
330
e21
  0
LAYOUT
  5
e28
102
{ACAD_XDICTIONARY
360
1134
102
}
102
{ACAD_REACTORS
330
e1d
102
}
330
e1d
100
AcDbPlotSettings
  1

  2

  4

  6

 40
0.000000
 41
0.000000
 42
0.000000
 43
0.000000
 44
0.000000
 45
0.000000
 46
0.000000
 47
0.000000
 48
0.000000
 49
0.000000
140
0.000000
141
0.000000
142
1.000000
143
1.000000
 70
   688
 72
     0
 73
     0
 74
     5
  7

 75
    16
147
1.000000
148
0.000000
149
0.000000
100
AcDbLayout
  1
Layout2
 70
     1
 71
     2
 10
0.000000
 20
0.000000
 11
197.100000
 21
283.100000
 12
0.000000
 22
0.000000
 32
0.000000
 14
0.000000
 24
0.000000
 34
0.000000
 15
0.000000
 25
0.000000
 35
0.000000
146
0.000000
 13
0.000000
 23
0.000000
 33
0.000000
 16
1.000000
 26
0.000000
 36
0.000000
 17
0.000000
 27
1.000000
 37
0.000000
 76
     0
330
e28
  0
LAYOUT
  5
e29
102
{ACAD_XDICTIONARY
360
1136
102
}
102
{ACAD_REACTORS
330
e1d
102
}
330
e1d
100
AcDbPlotSettings
  1

  2

  4

  6

 40
0.000000
 41
0.000000
 42
0.000000
 43
0.000000
 44
0.000000
 45
0.000000
 46
0.000000
 47
0.000000
 48
0.000000
 49
0.000000
140
0.000000
141
0.000000
142
1.000000
143
1.000000
 70
  1712
 72
     0
 73
     0
 74
     0
  7

 75
    16
147
1.000000
148
0.000000
149
0.000000
100
AcDbLayout
  1
Model
 70
     1
 71
     0
 10
0.000000
 20
0.000000
 11
197.100000
 21
283.100000
 12
0.000000
 22
0.000000
 32
0.000000
 14
0.000000
 24
0.000000
 34
0.000000
 15
0.000000
 25
0.000000
 35
0.000000
146
0.000000
 13
0.000000
 23
0.000000
 33
0.000000
 16
1.000000
 26
0.000000
 36
0.000000
 17
0.000000
 27
1.000000
 37
0.000000
 76
     0
330
e29
  0
MLINESTYLE
  5
e2a
102
{ACAD_REACTORS
330
e29
102
}
330
e29
100
AcDbMlineStyle
  2
STANDARD
 70
     0
  3
 
 62
   256
 51
90.000000
 52
90.000000
 71
     2
 49
0.500000
 62
   256
  6
BYLAYER
 49
-0.500000
 62
   256
  6
BYLAYER
  0
ACDBPLACEHOLDER
  5
e2b
102
{ACAD_REACTORS
330
e2a
102
}
330
e2a
  0
DICTIONARY
  5
1132
100
AcDbDictionary
280
     1
281
     1
  3
ACAD_XREC_ROUNDTRIP
360
1133
  0
DICTIONARY
  5
1134
100
AcDbDictionary
280
     1
281
     1
  3
ACAD_XREC_ROUNDTRIP
360
1135
  0
DICTIONARY
  5
1136
100
AcDbDictionary
280
     1
281
     1
  3
ACAD_XREC_ROUNDTRIP
360
1137
  0
XRECORD
  5
1133
102
{ACAD_REACTORS
330
1132
102
}
330
1132
100
AcDbXrecord
280
     1
102
SHADEPLOT
 70
     0
102
SHADEPLOTRESLEVEL
 70
     2
102
SHADEPLOTCUSTOMDPI
 70
   300
  0
XRECORD
  5
1135
102
{ACAD_REACTORS
330
1134
102
}
330
1134
100
AcDbXrecord
280
     1
102
SHADEPLOT
 70
     0
102
SHADEPLOTRESLEVEL
 70
     2
102
SHADEPLOTCUSTOMDPI
 70
   300
  0
XRECORD
  5
1137
102
{ACAD_REACTORS
330
1136
102
}
330
1136
100
AcDbXrecord
280
     1
102
SHADEPLOT
 70
     0
102
SHADEPLOTRESLEVEL
 70
     2
102
SHADEPLOTCUSTOMDPI
 70
   300
  0
ENDSEC
  0
EOF
