  0
SECTION
  2
HEADER
  9
$ACADVER
  1
AC1018
  9
$ACADMAINTVER
 70
     0
  9
$DWGCODEPAGE
  3
ANSI_932
  9
$INSBASE
 10
0.000000
 20
0.000000
 30
0.000000
  9
$EXTMIN
 10
0.000000
 20
0.000000
 30
0.000000
  9
$EXTMAX
 10
197.100000
 20
283.100000
 30
0.000000
  9
$LIMMIN
 10
0.000000
 20
0.000000
  9
$LIMMAX
 10
197.100000
 20
283.100000
  9
$ORTHOMODE
 70
     0
  9
$REGENMODE
 70
     1
  9
$FILLMODE
 70
     1
  9
$QTEXTMODE
 70
     0
  9
$MIRRTEXT
 70
     1
  9
$LTSCALE
 40
1.000000
  9
$ATTMODE
 70
     1
  9
$TEXTSIZE
 40
2.500000
  9
$TRACEWID
 40
1.000000
  9
$TEXTSTYLE
  7
BIGFONT
  9
$CLAYER
  8
0
  9
$CELTYPE
  6
BYLAYER
  9
$CECOLOR
 62
   256
  9
$CELTSCALE
 40
1.000000
  9
$DISPSILH
 70
     0
  9
$DIMSCALE
 40
1.000000
  9
$DIMASZ
 40
2.500000
  9
$DIMEXO
 40
0.625000
  9
$DIMDLI
 40
3.750000
  9
$DIMRND
 40
0.000000
  9
$DIMDLE
 40
0.000000
  9
$DIMEXE
 40
1.250000
  9
$DIMTP
 40
0.000000
  9
$DIMTM
 40
0.000000
  9
$DIMTXT
 40
2.500000
  9
$DIMCEN
 40
2.500000
  9
$DIMTSZ
 40
0.000000
  9
$DIMTOL
 70
     0
  9
$DIMLIM
 70
     0
  9
$DIMTIH
 70
     0
  9
$DIMTOH
 70
     0
  9
$DIMSE1
 70
     0
  9
$DIMSE2
 70
     0
  9
$DIMTAD
 70
     1
  9
$DIMZIN
 70
     8
  9
$DIMBLK
  1

  9
$DIMASO
 70
     1
  9
$DIMSHO
 70
     1
  9
$DIMPOST
  1

  9
$DIMAPOST
  1

  9
$DIMALT
 70
     0
  9
$DIMALTD
 70
     4
  9
$DIMALTF
 40
0.039400
  9
$DIMLFAC
 40
1.000000
  9
$DIMTOFL
 70
     1
  9
$DIMTVP
 40
0.000000
  9
$DIMTIX
 70
     0
  9
$DIMSOXD
 70
     0
  9
$DIMSAH
 70
     0
  9
$DIMBLK1
  1

  9
$DIMBLK2
  1

  9
$DIMSTYLE
  2
STANDARD
  9
$DIMCLRD
 70
     0
  9
$DIMCLRE
 70
     0
  9
$DIMCLRT
 70
     0
  9
$DIMTFAC
 40
1.000000
  9
$DIMGAP
 40
0.625000
  9
$DIMJUST
 70
     0
  9
$DIMSD1
 70
     0
  9
$DIMSD2
 70
     0
  9
$DIMTOLJ
 70
     1
  9
$DIMTZIN
 70
     0
  9
$DIMALTZ
 70
     0
  9
$DIMALTTZ
 70
     0
  9
$DIMUPT
 70
     0
  9
$DIMDEC
 70
     4
  9
$DIMTDEC
 70
     4
  9
$DIMALTU
 70
     8
  9
$DIMALTTD
 70
     4
  9
$DIMTXSTY
  7
STANDARD
  9
$DIMAUNIT
 70
     0
  9
$DIMADEC
 70
     0
  9
$DIMALTRND
 40
0.000000
  9
$DIMAZIN
 70
     0
  9
$DIMDSEP
 70
    46
  9
$DIMATFIT
 70
     3
  9
$DIMFRAC
 70
     0
  9
$DIMLDRBLK
  1

  9
$DIMLUNIT
 70
     2
  9
$DIMLWD
 70
-2
  9
$DIMLWE
 70
-2
  9
$DIMTMOVE
 70
     0
  9
$LUNITS
 70
     2
  9
$LUPREC
 70
     4
  9
$AXISMODE
 70
     0
  9
$SKETCHINC
 40
1.000000
  9
$FILLETRAD
 40
10.000000
  9
$AUNITS
 70
     0
  9
$AUPREC
 70
     0
  9
$MENU
  1
acad
  9
$ELEVATION
 40
0.000000
  9
$PELEVATION
 40
0.000000
  9
$THICKNESS
 40
0.000000
  9
$LIMCHECK
 70
     0
  9
$BLIPMODE
 70
     0
  9
$CHAMFERA
 40
10.000000
  9
$CHAMFERB
 40
10.000000
  9
$CHAMFERC
 40
20.000000
  9
$CHAMFERD
 40
0.000000
  9
$SKPOLY
 70
     0
  9
$TDCREATE
 40
2447851.677998
  9
$TDUCREATE
 40
2447851.677998
  9
$TDUPDATE
 40
2447851.677998
  9
$TDUUPDATE
 40
2447851.677998
  9
$TDINDWG
 40
0.000000
  9
$TDUSRTIMER
 40
0.000000
  9
$USRTIMER
 70
     1
  9
$ANGBASE
 50
0.000000
  9
$ANGDIR
 70
     0
  9
$PDMODE
 70
     0
  9
$PDSIZE
 40
0.000000
  9
$PLINEWID
 40
0.000000
  9
$SPLFRAME
 70
     0
  9
$SPLINETYPE
 70
     6
  9
$SPLINESEGS
 70
     8
  9
$HANDSEED
  5
FFFFFFF
  9
$SURFTAB1
 70
     6
  9
$SURFTAB2
 70
     6
  9
$SURFTYPE
 70
     6
  9
$SURFU
 70
     6
  9
$SURFV
 70
     6
  9
$UCSBASE
  2

  9
$UCSNAME
  2

  9
$UCSORG
 10
0.000000
 20
0.000000
 30
0.000000
  9
$UCSXDIR
 10
1.000000
 20
0.000000
 30
0.000000
  9
$UCSYDIR
 10
0.000000
 20
1.000000
 30
0.000000
  9
$UCSORTHOREF
  2

  9
$UCSORTHOVIEW
 70
     0
  9
$UCSORGTOP
 10
0.000000
 20
0.000000
 30
0.000000
  9
$UCSORGBOTTOM
 10
0.000000
 20
0.000000
 30
0.000000
  9
$UCSORGLEFT
 10
0.000000
 20
0.000000
 30
0.000000
  9
$UCSORGRIGHT
 10
0.000000
 20
0.000000
 30
0.000000
  9
$UCSORGFRONT
 10
0.000000
 20
0.000000
 30
0.000000
  9
$UCSORGBACK
 10
0.000000
 20
0.000000
 30
0.000000
  9
$PUCSBASE
  2

  9
$PUCSNAME
  2

  9
$PUCSORG
 10
0.000000
 20
0.000000
 30
0.000000
  9
$PUCSXDIR
 10
1.000000
 20
0.000000
 30
0.000000
  9
$PUCSYDIR
 10
0.000000
 20
1.000000
 30
0.000000
  9
$PUCSORTHOREF
  2

  9
$PUCSORTHOVIEW
 70
     0
  9
$PUCSORGTOP
 10
0.000000
 20
0.000000
 30
0.000000
  9
$PUCSORGBOTTOM
 10
0.000000
 20
0.000000
 30
0.000000
  9
$PUCSORGLEFT
 10
0.000000
 20
0.000000
 30
0.000000
  9
$PUCSORGRIGHT
 10
0.000000
 20
0.000000
 30
0.000000
  9
$PUCSORGFRONT
 10
0.000000
 20
0.000000
 30
0.000000
  9
$PUCSORGBACK
 10
0.000000
 20
0.000000
 30
0.000000
  9
$USERI1
 70
     0
  9
$USERI2
 70
     0
  9
$USERI3
 70
     0
  9
$USERI4
 70
     0
  9
$USERI5
 70
     0
  9
$USERR1
 40
0.000000
  9
$USERR2
 40
0.000000
  9
$USERR3
 40
0.000000
  9
$USERR4
 40
0.000000
  9
$USERR5
 40
0.000000
  9
$WORLDVIEW
 70
     1
  9
$SHADEDGE
 70
     3
  9
$SHADEDIF
 70
    70
  9
$TILEMODE
 70
     1
  9
$MAXACTVP
 70
    48
  9
$PINSBASE
 10
0.000000
 20
0.000000
 30
0.000000
  9
$PLIMCHECK
 70
     0
  9
$PEXTMIN
 10
100000000000000000000.000000
 20
100000000000000000000.000000
 30
100000000000000000000.000000
  9
$PEXTMAX
 10
-100000000000000000000.000000
 20
-100000000000000000000.000000
 30
-100000000000000000000.000000
  9
$PLIMMIN
 10
0.000000
 20
0.000000
  9
$PLIMMAX
 10
197.100000
 20
283.100000
  9
$UNITMODE
 70
     0
  9
$VISRETAIN
 70
     1
  9
$PLINEGEN
 70
     0
  9
$PSLTSCALE
 70
     1
  9
$TREEDEPTH
 70
  3020
  9
$CMLSTYLE
  2
STANDARD
  9
$CMLJUST
 70
     0
  9
$CMLSCALE
 40
20.000000
  9
$PROXYGRAPHICS
 70
     1
  9
$MEASUREMENT
 70
     1
  9
$CELWEIGHT
370
-1
  9
$ENDCAPS
280
     0
  9
$JOINSTYLE
280
     0
  9
$LWDISPLAY
290
     1
  9
$INSUNITS
 70
     0
  9
$HYPERLINKBASE
  1

  9
$STYLESHEET
  1

  9
$XEDIT
290
     1
  9
$CEPSNTYPE
380
     0
  9
$PSTYLEMODE
290
     1
  9
$FINGERPRINTGUID
  2
{01801163-5BC0-459E-B9C7-2188C09ED432}
  9
$VERSIONGUID
  2
{7F326DDD-95DF-42AD-9861-A0CD9F0961F2}
  9
$EXTNAMES
290
     1
  9
$PSVPSCALE
 40
0.0
  9
$OLESTARTUP
290
     0
  9
$SORTENTS
280
   127
  9
$INDEXCTL
280
     0
  9
$HIDETEXT
280
     1
  9
$XCLIPFRAME
290
     0
  9
$HALOGAP
280
     0
  9
$OBSCOLOR
 70
   257
  9
$OBSLTYPE
280
     0
  9
$INTERSECTIONDISPLAY
280
     0
  9
$INTERSECTIONCOLOR
 70
   257
  9
$DIMASSOC
280
     2
  9
$PROJECTNAME
  1

  0
ENDSEC
  0
SECTION
  2
TABLES
  0
TABLE
  2
VPORT
  5
a2
100
AcDbSymbolTable
 70
     2
  0
VPORT
  5
a5
100
AcDbSymbolTableRecord
100
AcDbViewportTableRecord
  2
*ACTIVE
 70
     0
 10
0.000000
 20
0.000000
 11
1.000000
 21
1.000000
 12
300.000000
 22
200.000000
 13
0.000000
 23
0.000000
 14
10.000000
 24
10.000000
 15
10.000000
 25
10.000000
 16
0.000000
 26
0.000000
 36
1.000000
 17
0.000000
 27
0.000000
 37
0.000000
 40
300.000000
 41
1.600432
 42
50.000000
 43
0.000000
 44
0.000000
 50
0.000000
 51
0.000000
 71
     0
 72
   100
 73
     1
 74
     1
 75
     0
 76
     0
 77
     0
 78
     0
  0
ENDTAB
  0
TABLE
  2
LTYPE
  5
a8
100
AcDbSymbolTable
 70
    11
  0
LTYPE
  5
ab
100
AcDbSymbolTableRecord
100
AcDbLinetypeTableRecord
  2
BYBLOCK
 70
    64
  3
BYBLOCK
 72
    65
 73
     0
 40
0.000000
  0
LTYPE
  5
ae
100
AcDbSymbolTableRecord
100
AcDbLinetypeTableRecord
  2
BYLAYER
 70
    64
  3
BYLAYER
 72
    65
 73
     0
 40
0.000000
  0
LTYPE
  5
b1
100
AcDbSymbolTableRecord
100
AcDbLinetypeTableRecord
  2
CONTINUOUS
 70
    64
  3
実線
 72
    65
 73
     0
 40
0.000000
  0
LTYPE
  5
b4
100
AcDbSymbolTableRecord
100
AcDbLinetypeTableRecord
  2
DASHED
 70
    64
  3
__ __ __ __ __ __ __ __ __ __ __ __ __ __ __
 72
    65
 73
     2
 40
0.750000
 49
0.500000
 74
     0
 49
-0.250000
 74
     0
  0
LTYPE
  5
b7
100
AcDbSymbolTableRecord
100
AcDbLinetypeTableRecord
  2
HIDDEN
 70
    64
  3
_ _ _ _ _ _ _ _ _ _ _ _ _ _ _ _ _ _ _ _ _ _ _
 72
    65
 73
     2
 40
0.375000
 49
0.250000
 74
     0
 49
-0.125000
 74
     0
  0
LTYPE
  5
ba
100
AcDbSymbolTableRecord
100
AcDbLinetypeTableRecord
  2
CENTER
 70
    64
  3
____ _ ____ _ ____ _ ____ _ ____ _ ____ _ ____
 72
    65
 73
     4
 40
2.000000
 49
1.250000
 74
     0
 49
-0.250000
 74
     0
 49
0.250000
 74
     0
 49
-0.250000
 74
     0
  0
LTYPE
  5
bd
100
AcDbSymbolTableRecord
100
AcDbLinetypeTableRecord
  2
PHANTOM
 70
    64
  3
_____ _ _ _____ _ _ _____ _ _ _____ _ _ ____
 72
    65
 73
     6
 40
2.500000
 49
1.250000
 74
     0
 49
-0.250000
 74
     0
 49
0.250000
 74
     0
 49
-0.250000
 74
     0
 49
0.250000
 74
     0
 49
-0.250000
 74
     0
  0
LTYPE
  5
c0
100
AcDbSymbolTableRecord
100
AcDbLinetypeTableRecord
  2
DOT
 70
    64
  3
...............................................
 72
    65
 73
     2
 40
0.250000
 49
0.000000
 74
     0
 49
-0.250000
 74
     0
  0
LTYPE
  5
c3
100
AcDbSymbolTableRecord
100
AcDbLinetypeTableRecord
  2
DASHDOT
 70
    64
  3
__ . __ . __ . __ . __ . __ . __ . __ . __ . __
 72
    65
 73
     4
 40
1.000000
 49
0.500000
 74
     0
 49
-0.250000
 74
     0
 49
0.000000
 74
     0
 49
-0.250000
 74
     0
  0
LTYPE
  5
c6
100
AcDbSymbolTableRecord
100
AcDbLinetypeTableRecord
  2
BORDER
 70
    64
  3
__ __ . __ __ . __ __ . __ __ . __ __ . __ __
 72
    65
 73
     6
 40
1.750000
 49
0.500000
 74
     0
 49
-0.250000
 74
     0
 49
0.500000
 74
     0
 49
-0.250000
 74
     0
 49
0.000000
 74
     0
 49
-0.250000
 74
     0
  0
LTYPE
  5
c9
100
AcDbSymbolTableRecord
100
AcDbLinetypeTableRecord
  2
DIVIDE
 70
    64
  3
__ . . __ . . __ . . __ . . __ . . __ . . __
 72
    65
 73
     6
 40
1.250000
 49
0.500000
 74
     0
 49
-0.250000
 74
     0
 49
0.000000
 74
     0
 49
-0.250000
 74
     0
 49
0.000000
 74
     0
 49
-0.250000
 74
     0
  0
ENDTAB
  0
TABLE
  2
LAYER
  5
cc
100
AcDbSymbolTable
 70
     2
  0
LAYER
  5
cf
100
AcDbSymbolTableRecord
100
AcDbLayerTableRecord
  2
0
 70
     0
 62
     7
  6
CONTINUOUS
370
 65533
390
	F
  0
LAYER
  5
d2
100
AcDbSymbolTableRecord
100
AcDbLayerTableRecord
  2
B
 70
     0
 62
     7
  6
CONTINUOUS
370
 65533
390
	F
  0
LAYER
  5
d5
100
AcDbSymbolTableRecord
100
AcDbLayerTableRecord
  2
C
 70
     0
 62
     7
  6
CONTINUOUS
370
 65533
390
	F
  0
LAYER
  5
d8
100
AcDbSymbolTableRecord
100
AcDbLayerTableRecord
  2
D
 70
     0
 62
     7
  6
CONTINUOUS
370
 65533
390
	F
  0
LAYER
  5
db
100
AcDbSymbolTableRecord
100
AcDbLayerTableRecord
  2
E
 70
     0
 62
     7
  6
CONTINUOUS
370
 65533
390
	F
  0
LAYER
  5
de
100
AcDbSymbolTableRecord
100
AcDbLayerTableRecord
  2
F
 70
     0
 62
     7
  6
CONTINUOUS
370
 65533
390
	F
  0
LAYER
  5
e1
100
AcDbSymbolTableRecord
100
AcDbLayerTableRecord
  2
G
 70
     0
 62
     7
  6
CONTINUOUS
370
 65533
390
	F
  0
LAYER
  5
e4
100
AcDbSymbolTableRecord
100
AcDbLayerTableRecord
  2
H
 70
     0
 62
     7
  6
CONTINUOUS
370
 65533
390
	F
  0
LAYER
  5
e7
100
AcDbSymbolTableRecord
100
AcDbLayerTableRecord
  2
I
 70
     0
 62
     7
  6
CONTINUOUS
370
 65533
390
	F
  0
LAYER
  5
ea
100
AcDbSymbolTableRecord
100
AcDbLayerTableRecord
  2
J
 70
     0
 62
     7
  6
CONTINUOUS
370
 65533
390
	F
  0
LAYER
  5
ed
100
AcDbSymbolTableRecord
100
AcDbLayerTableRecord
  2
K
 70
     0
 62
     7
  6
CONTINUOUS
370
 65533
390
	F
  0
LAYER
  5
f0
100
AcDbSymbolTableRecord
100
AcDbLayerTableRecord
  2
L
 70
     0
 62
     7
  6
CONTINUOUS
370
 65533
390
	F
  0
LAYER
  5
f3
100
AcDbSymbolTableRecord
100
AcDbLayerTableRecord
  2
M
 70
     0
 62
     7
  6
CONTINUOUS
370
 65533
390
	F
  0
LAYER
  5
f6
100
AcDbSymbolTableRecord
100
AcDbLayerTableRecord
  2
N
 70
     0
 62
     7
  6
CONTINUOUS
370
 65533
390
	F
  0
ENDTAB
  0
TABLE
  2
STYLE
  5
f9
100
AcDbSymbolTable
 70
     2
  0
STYLE
  5
fc
100
AcDbSymbolTableRecord
100
AcDbTextStyleTableRecord
  2
STANDARD
 70
     0
 40
0.000000
 41
0.500000
 50
0.000000
 71
     0
 42
0.300000
  3
txt
  4

  0
STYLE
  5
ff
100
AcDbSymbolTableRecord
100
AcDbTextStyleTableRecord
  2
BIGFONT
 70
    64
 40
0.000000
 41
1.000000
 50
0.000000
 71
     0
 42
0.200000
  3

  4
bigfont
  0
ENDTAB
  0
TABLE
  2
VIEW
  5
102
100
AcDbSymbolTable
 70
     0
  0
ENDTAB
  0
TABLE
  2
UCS
  5
105
100
AcDbSymbolTable
 70
     0
  0
ENDTAB
  0
TABLE
  2
APPID
  5
108
100
AcDbSymbolTable
 70
     3
  0
APPID
  5
10b
100
AcDbSymbolTableRecord
100
AcDbRegAppTableRecord
  2
ACAD
 70
     0
  0
APPID
  5
10e
100
AcDbSymbolTableRecord
100
AcDbRegAppTableRecord
  2
CONTENTTABDATA
 70
     0
  0
APPID
  5
111
100
AcDbSymbolTableRecord
100
AcDbRegAppTableRecord
  2
CONTENTCURRENTTAB
 70
     0
  0
ENDTAB
  0
TABLE
  2
DIMSTYLE
  5
114
330
     0
100
AcDbSymbolTable
 70
     2
100
AcDbDimStyleTable
 70
     1
  0
DIMSTYLE
105
117
100
AcDbSymbolTableRecord
100
AcDbDimStyleTableRecord
  2
STANDARD
 70
     0
  3

  4

  5

  6

  7

 40
1.000000
 41
0.180000
 42
0.062500
 43
0.380000
 44
0.180000
 45
0.000000
 46
0.000000
 47
0.000000
 48
0.000000
140
0.180000
141
0.090000
142
0.000000
143
25.400000
144
1.000000
145
0.000000
146
1.000000
147
0.090000
 71
     0
 72
     0
 73
     1
 74
     1
 75
     0
 76
     0
 77
     0
 78
     0
170
     0
171
     2
172
     0
173
     0
174
     0
175
     0
176
     0
177
     0
178
     0
270
     2
271
     4
272
     4
273
     2
274
     2
340
fc
275
     0
280
     0
281
     0
282
     0
283
     1
284
     0
285
     0
286
     0
287
     3
288
     0
  0
ENDTAB
  0
TABLE
  2
BLOCK_RECORD
  5
11a
100
AcDbSymbolTable
 70
     0
  0
BLOCK_RECORD
  5
11d
100
AcDbSymbolTableRecord
100
AcDbBlockTableRecord
  2
*MODEL_SPACE
  0
BLOCK_RECORD
  5
120
100
AcDbSymbolTableRecord
100
AcDbBlockTableRecord
  2
*PAPER_SPACE
  0
ENDTAB
  0
ENDSEC
  0
SECTION
  2
BLOCKS
  0
BLOCK
  5
123
330
124
100
AcDbEntity
  8
0
100
AcDbBlockBegin
  2
*Model_Space
 70
     0
 10
0.000000
 20
0.000000
 30
0.000000
  3
*Model_Space
  1
 
  0
ENDBLK
  5
126
330
124
100
AcDbEntity
  8
0
100
AcDbBlockEnd
  0
BLOCK
  5
129
330
12a
100
AcDbEntity
 67
     1
  8
0
100
AcDbBlockBegin
  2
*Paper_Space
 70
     0
 10
0.000000
 20
0.000000
 30
0.000000
  3
*Paper_Space
  1
 
  0
ENDBLK
  5
12c
330
12d
100
AcDbEntity
 67
     1
  8
0
100
AcDbBlockEnd
  0
ENDSEC
  0
SECTION
  2
ENTITIES
  0
LWPOLYLINE
  5
12f
100
AcDbEntity
  8
0
100
AcDbPolyline
 90
     8
 70
     1
 43
0.200000
 10
25.675000
 20
272.950000
 10
25.675000
 20
271.050000
 10
27.600000
 20
271.050000
 10
27.600000
 20
269.150000
 10
29.500000
 20
269.150000
 10
29.500000
 20
271.050000
 10
31.725000
 20
271.050000
 10
31.725000
 20
272.950000
  0
LWPOLYLINE
  5
142
100
AcDbEntity
  8
0
100
AcDbPolyline
 90
     4
 70
     1
 43
0.200000
 10
10.450000
 20
272.650000
 10
10.450000
 20
271.700000
 10
25.675000
 20
271.700000
 10
25.675000
 20
272.650000
  0
LWPOLYLINE
  5
14d
100
AcDbEntity
  8
0
100
AcDbPolyline
 90
     4
 70
     1
 43
0.200000
 10
46.950000
 20
272.650000
 10
46.950000
 20
271.700000
 10
31.725000
 20
271.700000
 10
31.725000
 20
272.650000
  0
HATCH
  5
158
330
F6
100
AcDbEntity
  8
0
100
AcDbHatch
 10
0.0
 20
0.0
 30
0.0
210
0.0
220
0.0
230
1.0
  2
SOLID
 70
     1
 71
     0
 91
     2
 92
     7
 72
     0
 73
     1
 93
     4
 10
21.250000
 20
236.800000
 10
21.250000
 20
235.525000
 10
27.900000
 20
235.525000
 10
27.900000
 20
236.800000
 97
     1
330
15b
 92
     7
 72
     0
 73
     1
 93
     4
 10
29.175000
 20
236.800000
 10
29.175000
 20
235.525000
 10
35.825000
 20
235.525000
 10
35.825000
 20
236.800000
 97
     1
330
15e
 75
     0
 76
     1
 47
0.651316
 98
     1
 10
0.0
 20
0.0
  0
LWPOLYLINE
  5
15b
330
F6
100
AcDbEntity
  8
0
100
AcDbPolyline
 90
     4
 70
     1
 43
0.200000
 10
21.250000
 20
236.800000
 10
21.250000
 20
235.525000
 10
27.900000
 20
235.525000
 10
27.900000
 20
236.800000
  0
LWPOLYLINE
  5
15e
330
F6
100
AcDbEntity
  8
0
100
AcDbPolyline
 90
     4
 70
     1
 43
0.200000
 10
29.175000
 20
236.800000
 10
29.175000
 20
235.525000
 10
35.825000
 20
235.525000
 10
35.825000
 20
236.800000
  0
LWPOLYLINE
  5
171
100
AcDbEntity
  8
0
100
AcDbPolyline
 90
     4
 70
     1
 43
0.200000
 10
21.250000
 20
236.800000
 10
21.250000
 20
235.525000
 10
27.900000
 20
235.525000
 10
27.900000
 20
236.800000
  0
LWPOLYLINE
  5
17c
100
AcDbEntity
  8
0
100
AcDbPolyline
 90
     4
 70
     1
 43
0.200000
 10
29.175000
 20
236.800000
 10
29.175000
 20
235.525000
 10
35.825000
 20
235.525000
 10
35.825000
 20
236.800000
  0
LWPOLYLINE
  5
187
100
AcDbEntity
  8
0
100
AcDbPolyline
 90
     4
 70
     1
 43
0.200000
 10
20.300000
 20
263.750000
 10
20.300000
 20
263.125000
 10
23.475000
 20
263.125000
 10
23.475000
 20
263.750000
  0
LWPOLYLINE
  5
192
100
AcDbEntity
  8
0
100
AcDbPolyline
 90
     4
 70
     1
 43
0.200000
 10
20.300000
 20
258.675000
 10
20.300000
 20
258.050000
 10
23.475000
 20
258.050000
 10
23.475000
 20
258.675000
  0
LWPOLYLINE
  5
19d
100
AcDbEntity
  8
0
100
AcDbPolyline
 90
     4
 70
     1
 43
0.200000
 10
20.300000
 20
253.600000
 10
20.300000
 20
252.975000
 10
23.475000
 20
252.975000
 10
23.475000
 20
253.600000
  0
LWPOLYLINE
  5
1a8
100
AcDbEntity
  8
0
100
AcDbPolyline
 90
     4
 70
     1
 43
0.200000
 10
20.300000
 20
250.125000
 10
20.300000
 20
249.475000
 10
23.475000
 20
249.475000
 10
23.475000
 20
250.125000
  0
LWPOLYLINE
  5
1b3
100
AcDbEntity
  8
0
100
AcDbPolyline
 90
     4
 70
     1
 43
0.200000
 10
20.300000
 20
248.225000
 10
20.300000
 20
247.575000
 10
23.475000
 20
247.575000
 10
23.475000
 20
248.225000
  0
LWPOLYLINE
  5
1be
100
AcDbEntity
  8
0
100
AcDbPolyline
 90
     4
 70
     1
 43
0.200000
 10
32.975000
 20
263.750000
 10
32.975000
 20
263.125000
 10
36.150000
 20
263.125000
 10
36.150000
 20
263.750000
  0
LWPOLYLINE
  5
1c9
100
AcDbEntity
  8
0
100
AcDbPolyline
 90
     4
 70
     1
 43
0.200000
 10
32.975000
 20
258.675000
 10
32.975000
 20
258.050000
 10
36.150000
 20
258.050000
 10
36.150000
 20
258.675000
  0
LWPOLYLINE
  5
1d4
100
AcDbEntity
  8
0
100
AcDbPolyline
 90
     4
 70
     1
 43
0.200000
 10
32.975000
 20
253.600000
 10
32.975000
 20
252.975000
 10
36.150000
 20
252.975000
 10
36.150000
 20
253.600000
  0
LWPOLYLINE
  5
1df
100
AcDbEntity
  8
0
100
AcDbPolyline
 90
     4
 70
     1
 43
0.200000
 10
32.975000
 20
250.125000
 10
32.975000
 20
249.475000
 10
36.150000
 20
249.475000
 10
36.150000
 20
250.125000
  0
LWPOLYLINE
  5
1ea
100
AcDbEntity
  8
0
100
AcDbPolyline
 90
     4
 70
     1
 43
0.200000
 10
32.975000
 20
248.225000
 10
32.975000
 20
247.575000
 10
36.150000
 20
247.575000
 10
36.150000
 20
248.225000
  0
LINE
  5
1f5
100
AcDbEntity
  8
0
370
    20
100
AcDbLine
 10
22.200000
 20
260.900000
 11
34.250000
 21
260.900000
  0
LINE
  5
1f8
100
AcDbEntity
  8
0
370
    20
100
AcDbLine
 10
34.250000
 20
265.975000
 11
22.200000
 21
265.975000
  0
LINE
  5
1fb
100
AcDbEntity
  8
0
370
    20
100
AcDbLine
 10
22.200000
 20
255.825000
 11
34.250000
 21
255.825000
  0
LINE
  5
1fe
100
AcDbEntity
  8
0
370
    20
100
AcDbLine
 10
34.250000
 20
260.900000
 11
22.200000
 21
260.900000
  0
LINE
  5
201
100
AcDbEntity
  8
0
370
    20
100
AcDbLine
 10
22.200000
 20
250.750000
 11
34.250000
 21
250.750000
  0
LINE
  5
204
100
AcDbEntity
  8
0
370
    20
100
AcDbLine
 10
34.250000
 20
255.825000
 11
22.200000
 21
255.825000
  0
LINE
  5
207
100
AcDbEntity
  8
0
370
    20
100
AcDbLine
 10
22.200000
 20
248.850000
 11
34.250000
 21
248.850000
  0
LINE
  5
20a
100
AcDbEntity
  8
0
370
    20
100
AcDbLine
 10
34.250000
 20
250.750000
 11
22.200000
 21
250.750000
  0
LINE
  5
20d
100
AcDbEntity
  8
0
370
    20
100
AcDbLine
 10
22.200000
 20
246.950000
 11
34.250000
 21
246.950000
  0
LINE
  5
210
100
AcDbEntity
  8
0
370
    20
100
AcDbLine
 10
34.250000
 20
248.850000
 11
22.200000
 21
248.850000
  0
LINE
  5
213
100
AcDbEntity
  8
0
370
    20
100
AcDbLine
 10
25.375000
 20
246.950000
 11
25.375000
 21
244.400000
  0
LINE
  5
216
100
AcDbEntity
  8
0
370
    20
100
AcDbLine
 10
25.375000
 20
244.400000
 11
31.400000
 21
244.400000
  0
LINE
  5
219
100
AcDbEntity
  8
0
370
    20
100
AcDbLine
 10
31.400000
 20
244.400000
 11
31.400000
 21
246.950000
  0
LINE
  5
21c
100
AcDbEntity
  8
0
370
    20
100
AcDbLine
 10
31.400000
 20
246.950000
 11
25.375000
 21
246.950000
  0
LINE
  5
21f
100
AcDbEntity
  8
0
370
    20
100
AcDbLine
 10
29.175000
 20
172.400000
 11
27.900000
 21
172.400000
  0
LINE
  5
222
100
AcDbEntity
  8
0
370
    20
100
AcDbLine
 10
27.900000
 20
269.150000
 11
29.175000
 21
269.150000
  0
LINE
  5
225
100
AcDbEntity
  8
0
370
    20
100
AcDbLine
 10
22.200000
 20
265.975000
 11
22.200000
 21
263.750000
  0
LINE
  5
228
100
AcDbEntity
  8
0
370
    20
100
AcDbLine
 10
22.200000
 20
263.125000
 11
22.200000
 21
260.900000
  0
LINE
  5
22b
100
AcDbEntity
  8
0
370
    20
100
AcDbLine
 10
22.200000
 20
260.900000
 11
22.200000
 21
258.675000
  0
LINE
  5
22e
100
AcDbEntity
  8
0
370
    20
100
AcDbLine
 10
22.200000
 20
258.050000
 11
22.200000
 21
255.825000
  0
LINE
  5
231
100
AcDbEntity
  8
0
370
    20
100
AcDbLine
 10
22.200000
 20
255.825000
 11
22.200000
 21
253.600000
  0
LINE
  5
234
100
AcDbEntity
  8
0
370
    20
100
AcDbLine
 10
22.200000
 20
252.975000
 11
22.200000
 21
250.750000
  0
LINE
  5
237
100
AcDbEntity
  8
0
370
    20
100
AcDbLine
 10
22.200000
 20
250.750000
 11
22.200000
 21
250.125000
  0
LINE
  5
23a
100
AcDbEntity
  8
0
370
    20
100
AcDbLine
 10
22.200000
 20
249.475000
 11
22.200000
 21
248.850000
  0
LINE
  5
23d
100
AcDbEntity
  8
0
370
    20
100
AcDbLine
 10
22.200000
 20
248.850000
 11
22.200000
 21
248.225000
  0
LINE
  5
240
100
AcDbEntity
  8
0
370
    20
100
AcDbLine
 10
22.200000
 20
247.575000
 11
22.200000
 21
246.950000
  0
LINE
  5
243
100
AcDbEntity
  8
0
370
    20
100
AcDbLine
 10
34.250000
 20
248.850000
 11
34.250000
 21
248.225000
  0
LINE
  5
246
100
AcDbEntity
  8
0
370
    20
100
AcDbLine
 10
34.250000
 20
247.575000
 11
34.250000
 21
246.950000
  0
LINE
  5
249
100
AcDbEntity
  8
0
370
    20
100
AcDbLine
 10
34.250000
 20
250.750000
 11
34.250000
 21
250.125000
  0
LINE
  5
24c
100
AcDbEntity
  8
0
370
    20
100
AcDbLine
 10
34.250000
 20
249.475000
 11
34.250000
 21
248.850000
  0
LINE
  5
24f
100
AcDbEntity
  8
0
370
    20
100
AcDbLine
 10
34.250000
 20
255.825000
 11
34.250000
 21
253.600000
  0
LINE
  5
252
100
AcDbEntity
  8
0
370
    20
100
AcDbLine
 10
34.250000
 20
252.975000
 11
34.250000
 21
250.750000
  0
LINE
  5
255
100
AcDbEntity
  8
0
370
    20
100
AcDbLine
 10
34.250000
 20
260.900000
 11
34.250000
 21
258.675000
  0
LINE
  5
258
100
AcDbEntity
  8
0
370
    20
100
AcDbLine
 10
34.250000
 20
258.050000
 11
34.250000
 21
255.825000
  0
LINE
  5
25b
100
AcDbEntity
  8
0
370
    20
100
AcDbLine
 10
34.250000
 20
265.975000
 11
34.250000
 21
263.750000
  0
LINE
  5
25e
100
AcDbEntity
  8
0
370
    20
100
AcDbLine
 10
34.250000
 20
263.125000
 11
34.250000
 21
260.900000
  0
LINE
  5
261
100
AcDbEntity
  8
0
370
    20
100
AcDbLine
 10
27.900000
 20
269.150000
 11
27.900000
 21
265.975000
  0
LINE
  5
264
100
AcDbEntity
  8
0
370
    20
100
AcDbLine
 10
29.175000
 20
269.150000
 11
29.175000
 21
265.975000
  0
LINE
  5
267
100
AcDbEntity
  8
0
  6
DASHED
 62
     7
370
    20
100
AcDbLine
 10
27.900000
 20
265.975000
 11
27.900000
 21
244.400000
  0
LINE
  5
26a
100
AcDbEntity
  8
0
  6
DASHED
 62
     7
370
    20
100
AcDbLine
 10
29.175000
 20
244.400000
 11
29.175000
 21
265.975000
  0
LINE
  5
26d
100
AcDbEntity
  8
0
370
    20
100
AcDbLine
 10
27.900000
 20
235.525000
 11
11.400000
 21
235.525000
  0
LINE
  5
270
100
AcDbEntity
  8
0
370
    20
100
AcDbLine
 10
29.175000
 20
235.525000
 11
45.025000
 21
235.525000
  0
LWPOLYLINE
  5
273
100
AcDbEntity
  8
0
100
AcDbPolyline
 90
     4
 70
     0
 43
0.200000
 10
27.900000
 20
173.025000
 10
27.600000
 20
170.175000
 10
28.225000
 20
164.775000
 10
28.550000
 20
162.875000
  0
LWPOLYLINE
  5
27e
100
AcDbEntity
  8
0
100
AcDbPolyline
 90
     4
 70
     0
 43
0.200000
 10
29.175000
 20
173.025000
 10
29.500000
 20
170.175000
 10
28.850000
 20
164.775000
 10
28.550000
 20
162.875000
  0
LINE
  5
289
100
AcDbEntity
  8
0
370
    20
100
AcDbLine
 10
29.175000
 20
172.400000
 11
27.900000
 21
170.800000
  0
LINE
  5
28c
100
AcDbEntity
  8
0
370
    20
100
AcDbLine
 10
29.175000
 20
170.800000
 11
27.900000
 21
168.275000
  0
LINE
  5
28f
100
AcDbEntity
  8
0
370
    20
100
AcDbLine
 10
29.175000
 20
168.275000
 11
28.225000
 21
166.675000
  0
LINE
  5
292
100
AcDbEntity
  8
0
370
    20
100
AcDbLine
 10
28.850000
 20
165.725000
 11
28.225000
 21
165.425000
  0
LINE
  5
295
100
AcDbEntity
  8
0
370
    20
100
AcDbLine
 10
29.175000
 20
173.975000
 11
27.900000
 21
173.975000
  0
LINE
  5
298
100
AcDbEntity
  8
0
370
    20
100
AcDbLine
 10
29.175000
 20
183.825000
 11
27.900000
 21
183.825000
  0
LINE
  5
29b
100
AcDbEntity
  8
0
370
    20
100
AcDbLine
 10
29.175000
 20
193.975000
 11
27.900000
 21
193.975000
  0
LINE
  5
29e
100
AcDbEntity
  8
0
370
    20
100
AcDbLine
 10
29.175000
 20
203.800000
 11
27.900000
 21
203.800000
  0
LINE
  5
2a1
100
AcDbEntity
  8
0
370
    20
100
AcDbLine
 10
26.325000
 20
163.500000
 11
53.600000
 21
163.500000
  0
LINE
  5
2a4
100
AcDbEntity
  8
0
370
    20
100
AcDbLine
 10
29.800000
 20
172.400000
 11
53.925000
 21
172.400000
  0
LINE
  5
2a7
100
AcDbEntity
  8
0
370
    20
100
AcDbLine
 10
30.125000
 20
269.150000
 11
50.750000
 21
269.150000
  0
LINE
  5
2aa
100
AcDbEntity
  8
0
370
    20
100
AcDbLine
 10
27.900000
 20
227.275000
 11
29.175000
 21
227.275000
  0
LINE
  5
2ad
100
AcDbEntity
  8
0
370
    20
100
AcDbLine
 10
29.800000
 20
227.275000
 11
50.750000
 21
227.275000
  0
LINE
  5
2b0
100
AcDbEntity
  8
0
370
    20
100
AcDbLine
 10
29.500000
 20
203.800000
 11
50.750000
 21
203.800000
  0
LINE
  5
2b3
100
AcDbEntity
  8
0
370
    20
100
AcDbLine
 10
23.475000
 20
217.125000
 11
25.375000
 21
218.400000
  0
LINE
  5
2b6
100
AcDbEntity
  8
0
370
    20
100
AcDbLine
 10
25.375000
 20
218.400000
 11
27.600000
 21
217.125000
  0
LINE
  5
2b9
100
AcDbEntity
  8
0
370
    20
100
AcDbLine
 10
27.600000
 20
217.125000
 11
29.500000
 21
218.400000
  0
LINE
  5
2bc
100
AcDbEntity
  8
0
370
    20
100
AcDbLine
 10
29.500000
 20
218.400000
 11
31.725000
 21
217.125000
  0
LINE
  5
2bf
100
AcDbEntity
  8
0
370
    20
100
AcDbLine
 10
31.725000
 20
217.125000
 11
33.625000
 21
218.400000
  0
LINE
  5
2c2
100
AcDbEntity
  8
0
370
    20
100
AcDbLine
 10
33.625000
 20
218.400000
 11
35.525000
 21
217.125000
  0
LINE
  5
2c5
100
AcDbEntity
  8
0
370
    20
100
AcDbLine
 10
35.525000
 20
217.125000
 11
37.750000
 21
218.400000
  0
LINE
  5
2c8
100
AcDbEntity
  8
0
370
    20
100
AcDbLine
 10
37.750000
 20
218.400000
 11
39.650000
 21
217.125000
  0
LINE
  5
2cb
100
AcDbEntity
  8
0
370
    20
100
AcDbLine
 10
39.650000
 20
217.125000
 11
41.875000
 21
218.400000
  0
LINE
  5
2ce
100
AcDbEntity
  8
0
370
    20
100
AcDbLine
 10
41.875000
 20
218.400000
 11
43.775000
 21
217.125000
  0
LINE
  5
2d1
100
AcDbEntity
  8
0
370
    20
100
AcDbLine
 10
49.800000
 20
218.400000
 11
52.025000
 21
217.125000
  0
LINE
  5
2d4
100
AcDbEntity
  8
0
370
    20
100
AcDbLine
 10
23.475000
 20
215.850000
 11
25.375000
 21
217.125000
  0
LINE
  5
2d7
100
AcDbEntity
  8
0
370
    20
100
AcDbLine
 10
25.375000
 20
217.125000
 11
27.600000
 21
215.850000
  0
LINE
  5
2da
100
AcDbEntity
  8
0
370
    20
100
AcDbLine
 10
27.600000
 20
215.850000
 11
29.500000
 21
217.125000
  0
LINE
  5
2dd
100
AcDbEntity
  8
0
370
    20
100
AcDbLine
 10
29.500000
 20
217.125000
 11
31.725000
 21
215.850000
  0
LINE
  5
2e0
100
AcDbEntity
  8
0
370
    20
100
AcDbLine
 10
31.725000
 20
215.850000
 11
33.625000
 21
217.125000
  0
LINE
  5
2e3
100
AcDbEntity
  8
0
370
    20
100
AcDbLine
 10
33.625000
 20
217.125000
 11
35.525000
 21
215.850000
  0
LINE
  5
2e6
100
AcDbEntity
  8
0
370
    20
100
AcDbLine
 10
35.525000
 20
215.850000
 11
37.750000
 21
217.125000
  0
LINE
  5
2e9
100
AcDbEntity
  8
0
370
    20
100
AcDbLine
 10
37.750000
 20
217.125000
 11
39.650000
 21
215.850000
  0
LINE
  5
2ec
100
AcDbEntity
  8
0
370
    20
100
AcDbLine
 10
39.650000
 20
215.850000
 11
41.875000
 21
217.125000
  0
LINE
  5
2ef
100
AcDbEntity
  8
0
370
    20
100
AcDbLine
 10
41.875000
 20
217.125000
 11
43.775000
 21
215.850000
  0
LINE
  5
2f2
100
AcDbEntity
  8
0
370
    20
100
AcDbLine
 10
49.800000
 20
217.125000
 11
52.025000
 21
215.850000
  0
LINE
  5
2f5
100
AcDbEntity
  8
0
370
    20
100
AcDbLine
 10
49.150000
 20
269.150000
 11
49.150000
 21
227.275000
  0
LWPOLYLINE
  5
2f8
100
AcDbEntity
  8
0
100
AcDbPolyline
 90
     3
 70
     0
 43
0.200000
 10
50.125000
 20
267.575000
 10
49.150000
 20
269.150000
 10
48.200000
 20
267.575000
  0
LWPOLYLINE
  5
301
100
AcDbEntity
  8
0
100
AcDbPolyline
 90
     3
 70
     0
 43
0.200000
 10
48.200000
 20
228.875000
 10
49.150000
 20
227.275000
 10
50.125000
 20
228.875000
  0
LINE
  5
30a
100
AcDbEntity
  8
0
370
    20
100
AcDbLine
 10
49.150000
 20
203.800000
 11
49.150000
 21
172.400000
  0
LWPOLYLINE
  5
30d
100
AcDbEntity
  8
0
100
AcDbPolyline
 90
     3
 70
     0
 43
0.200000
 10
50.125000
 20
202.225000
 10
49.150000
 20
203.800000
 10
48.200000
 20
202.225000
  0
LWPOLYLINE
  5
316
100
AcDbEntity
  8
0
100
AcDbPolyline
 90
     3
 70
     0
 43
0.200000
 10
48.200000
 20
173.975000
 10
49.150000
 20
172.400000
 10
50.125000
 20
173.975000
  0
LINE
  5
31f
100
AcDbEntity
  8
0
370
    20
100
AcDbLine
 10
27.900000
 20
244.400000
 11
27.900000
 21
217.450000
  0
LINE
  5
322
100
AcDbEntity
  8
0
370
    20
100
AcDbLine
 10
27.900000
 20
216.175000
 11
27.900000
 21
173.025000
  0
LINE
  5
325
100
AcDbEntity
  8
0
  6
DASHDOT
 62
     7
370
    20
100
AcDbLine
 10
28.550000
 20
275.175000
 11
28.550000
 21
218.075000
  0
LINE
  5
328
100
AcDbEntity
  8
0
370
    20
100
AcDbLine
 10
29.175000
 20
244.400000
 11
29.175000
 21
218.400000
  0
LINE
  5
32b
100
AcDbEntity
  8
0
370
    20
100
AcDbLine
 10
29.175000
 20
217.125000
 11
29.175000
 21
173.025000
  0
LINE
  5
32e
100
AcDbEntity
  8
0
370
    20
100
AcDbLine
 10
12.050000
 20
234.575000
 11
13.000000
 21
235.525000
  0
LINE
  5
331
100
AcDbEntity
  8
0
370
    20
100
AcDbLine
 10
13.000000
 20
234.575000
 11
13.950000
 21
235.525000
  0
LINE
  5
334
100
AcDbEntity
  8
0
370
    20
100
AcDbLine
 10
13.950000
 20
234.575000
 11
13.300000
 21
235.200000
  0
LINE
  5
337
100
AcDbEntity
  8
0
370
    20
100
AcDbLine
 10
14.275000
 20
234.575000
 11
15.225000
 21
235.525000
  0
LINE
  5
33a
100
AcDbEntity
  8
0
370
    20
100
AcDbLine
 10
15.225000
 20
234.575000
 11
16.175000
 21
235.525000
  0
LINE
  5
33d
100
AcDbEntity
  8
0
370
    20
100
AcDbLine
 10
16.175000
 20
234.575000
 11
15.525000
 21
235.200000
  0
LINE
  5
340
100
AcDbEntity
  8
0
370
    20
100
AcDbLine
 10
16.475000
 20
234.575000
 11
17.425000
 21
235.525000
  0
LINE
  5
343
100
AcDbEntity
  8
0
370
    20
100
AcDbLine
 10
17.425000
 20
234.575000
 11
18.400000
 21
235.525000
  0
LINE
  5
346
100
AcDbEntity
  8
0
370
    20
100
AcDbLine
 10
18.400000
 20
234.575000
 11
17.750000
 21
235.200000
  0
LINE
  5
349
100
AcDbEntity
  8
0
370
    20
100
AcDbLine
 10
18.400000
 20
234.575000
 11
19.350000
 21
235.525000
  0
LINE
  5
34c
100
AcDbEntity
  8
0
370
    20
100
AcDbLine
 10
19.350000
 20
234.575000
 11
20.300000
 21
235.525000
  0
LINE
  5
34f
100
AcDbEntity
  8
0
370
    20
100
AcDbLine
 10
20.300000
 20
234.575000
 11
19.650000
 21
235.200000
  0
LINE
  5
352
100
AcDbEntity
  8
0
370
    20
100
AcDbLine
 10
20.600000
 20
234.575000
 11
21.550000
 21
235.525000
  0
LINE
  5
355
100
AcDbEntity
  8
0
370
    20
100
AcDbLine
 10
21.550000
 20
234.575000
 11
22.500000
 21
235.525000
  0
LINE
  5
358
100
AcDbEntity
  8
0
370
    20
100
AcDbLine
 10
22.500000
 20
234.575000
 11
21.875000
 21
235.200000
  0
LINE
  5
35b
100
AcDbEntity
  8
0
370
    20
100
AcDbLine
 10
22.500000
 20
234.575000
 11
23.475000
 21
235.525000
  0
LINE
  5
35e
100
AcDbEntity
  8
0
370
    20
100
AcDbLine
 10
23.475000
 20
234.575000
 11
24.425000
 21
235.525000
  0
LINE
  5
361
100
AcDbEntity
  8
0
370
    20
100
AcDbLine
 10
24.425000
 20
234.575000
 11
23.775000
 21
235.200000
  0
LINE
  5
364
100
AcDbEntity
  8
0
370
    20
100
AcDbLine
 10
24.725000
 20
234.575000
 11
25.675000
 21
235.525000
  0
LINE
  5
367
100
AcDbEntity
  8
0
370
    20
100
AcDbLine
 10
25.675000
 20
234.575000
 11
26.625000
 21
235.525000
  0
LINE
  5
36a
100
AcDbEntity
  8
0
370
    20
100
AcDbLine
 10
26.625000
 20
234.575000
 11
26.000000
 21
235.200000
  0
LINE
  5
36d
100
AcDbEntity
  8
0
370
    20
100
AcDbLine
 10
29.500000
 20
234.575000
 11
30.450000
 21
235.525000
  0
LINE
  5
370
100
AcDbEntity
  8
0
370
    20
100
AcDbLine
 10
30.450000
 20
234.575000
 11
31.400000
 21
235.525000
  0
LINE
  5
373
100
AcDbEntity
  8
0
370
    20
100
AcDbLine
 10
31.400000
 20
234.575000
 11
30.750000
 21
235.200000
  0
LINE
  5
376
100
AcDbEntity
  8
0
370
    20
100
AcDbLine
 10
31.725000
 20
234.575000
 11
32.675000
 21
235.525000
  0
LINE
  5
379
100
AcDbEntity
  8
0
370
    20
100
AcDbLine
 10
32.675000
 20
234.575000
 11
33.625000
 21
235.525000
  0
LINE
  5
37c
100
AcDbEntity
  8
0
370
    20
100
AcDbLine
 10
33.625000
 20
234.575000
 11
32.975000
 21
235.200000
  0
LINE
  5
37f
100
AcDbEntity
  8
0
370
    20
100
AcDbLine
 10
33.925000
 20
234.575000
 11
34.875000
 21
235.525000
  0
LINE
  5
382
100
AcDbEntity
  8
0
370
    20
100
AcDbLine
 10
34.875000
 20
234.575000
 11
35.825000
 21
235.525000
  0
LINE
  5
385
100
AcDbEntity
  8
0
370
    20
100
AcDbLine
 10
35.825000
 20
234.575000
 11
35.200000
 21
235.200000
  0
LINE
  5
388
100
AcDbEntity
  8
0
370
    20
100
AcDbLine
 10
36.150000
 20
234.575000
 11
37.100000
 21
235.525000
  0
LINE
  5
38b
100
AcDbEntity
  8
0
370
    20
100
AcDbLine
 10
37.100000
 20
234.575000
 11
38.050000
 21
235.525000
  0
LINE
  5
38e
100
AcDbEntity
  8
0
370
    20
100
AcDbLine
 10
38.050000
 20
234.575000
 11
37.425000
 21
235.200000
  0
LINE
  5
391
100
AcDbEntity
  8
0
370
    20
100
AcDbLine
 10
38.050000
 20
234.575000
 11
39.000000
 21
235.525000
  0
LINE
  5
394
100
AcDbEntity
  8
0
370
    20
100
AcDbLine
 10
39.000000
 20
234.575000
 11
39.950000
 21
235.525000
  0
LINE
  5
397
100
AcDbEntity
  8
0
370
    20
100
AcDbLine
 10
39.950000
 20
234.575000
 11
39.325000
 21
235.200000
  0
LINE
  5
39a
100
AcDbEntity
  8
0
370
    20
100
AcDbLine
 10
40.275000
 20
234.575000
 11
41.225000
 21
235.525000
  0
LINE
  5
39d
100
AcDbEntity
  8
0
370
    20
100
AcDbLine
 10
41.225000
 20
234.575000
 11
42.175000
 21
235.525000
  0
LINE
  5
3a0
100
AcDbEntity
  8
0
370
    20
100
AcDbLine
 10
42.175000
 20
234.575000
 11
41.550000
 21
235.200000
  0
LINE
  5
3a3
100
AcDbEntity
  8
0
370
    20
100
AcDbLine
 10
42.500000
 20
234.575000
 11
43.450000
 21
235.525000
  0
LINE
  5
3a6
100
AcDbEntity
  8
0
370
    20
100
AcDbLine
 10
43.450000
 20
234.575000
 11
44.400000
 21
235.525000
  0
LINE
  5
3a9
100
AcDbEntity
  8
0
370
    20
100
AcDbLine
 10
44.400000
 20
234.575000
 11
43.775000
 21
235.200000
  0
LINE
  5
3ac
100
AcDbEntity
  8
0
370
    20
100
AcDbLine
 10
26.950000
 20
234.575000
 11
27.900000
 21
235.525000
  0
LINE
  5
3af
100
AcDbEntity
  8
0
370
    20
100
AcDbLine
 10
21.550000
 20
265.975000
 11
16.175000
 21
265.975000
  0
LINE
  5
3b2
100
AcDbEntity
  8
0
370
    20
100
AcDbLine
 10
34.875000
 20
265.975000
 11
42.500000
 21
265.975000
  0
LINE
  5
3b5
100
AcDbEntity
  8
0
370
    20
100
AcDbLine
 10
34.875000
 20
246.950000
 11
42.500000
 21
246.950000
  0
LINE
  5
3b8
100
AcDbEntity
  8
0
370
    20
100
AcDbLine
 10
21.550000
 20
260.900000
 11
16.175000
 21
260.900000
  0
LINE
  5
3bb
100
AcDbEntity
  8
0
370
    20
100
AcDbLine
 10
21.550000
 20
250.750000
 11
16.175000
 21
250.750000
  0
LINE
  5
3be
100
AcDbEntity
  8
0
370
    20
100
AcDbLine
 10
21.550000
 20
248.850000
 11
16.175000
 21
248.850000
  0
LINE
  5
3c1
100
AcDbEntity
  8
0
370
    20
100
AcDbLine
 10
17.125000
 20
265.975000
 11
17.125000
 21
260.900000
  0
LWPOLYLINE
  5
3c4
100
AcDbEntity
  8
0
100
AcDbPolyline
 90
     3
 70
     0
 43
0.200000
 10
18.075000
 20
264.400000
 10
17.125000
 20
265.975000
 10
16.175000
 20
264.400000
  0
LWPOLYLINE
  5
3cd
100
AcDbEntity
  8
0
100
AcDbPolyline
 90
     3
 70
     0
 43
0.200000
 10
16.175000
 20
262.500000
 10
17.125000
 20
260.900000
 10
18.075000
 20
262.500000
  0
LINE
  5
3d6
100
AcDbEntity
  8
0
370
    20
100
AcDbLine
 10
41.550000
 20
265.975000
 11
41.550000
 21
246.950000
  0
LWPOLYLINE
  5
3d9
100
AcDbEntity
  8
0
100
AcDbPolyline
 90
     3
 70
     0
 43
0.200000
 10
42.500000
 20
264.400000
 10
41.550000
 20
265.975000
 10
40.600000
 20
264.400000
  0
LWPOLYLINE
  5
3e2
100
AcDbEntity
  8
0
100
AcDbPolyline
 90
     3
 70
     0
 43
0.200000
 10
40.600000
 20
248.525000
 10
41.550000
 20
246.950000
 10
42.500000
 20
248.525000
  0
LINE
  5
3eb
100
AcDbEntity
  8
0
370
    20
100
AcDbLine
 10
17.125000
 20
253.925000
 11
17.125000
 21
250.750000
  0
LWPOLYLINE
  5
3ee
100
AcDbEntity
  8
0
100
AcDbPolyline
 90
     3
 70
     0
 43
0.200000
 10
16.175000
 20
252.350000
 10
17.125000
 20
250.750000
 10
18.075000
 20
252.350000
  0
LINE
  5
3f7
100
AcDbEntity
  8
0
370
    20
100
AcDbLine
 10
17.125000
 20
248.850000
 11
17.125000
 21
245.675000
  0
LWPOLYLINE
  5
3fa
100
AcDbEntity
  8
0
100
AcDbPolyline
 90
     3
 70
     0
 43
0.200000
 10
18.075000
 20
247.275000
 10
17.125000
 20
248.850000
 10
16.175000
 20
247.275000
  0
LINE
  5
403
100
AcDbEntity
  8
0
370
    20
100
AcDbLine
 10
49.150000
 20
172.400000
 11
49.150000
 21
163.500000
  0
LWPOLYLINE
  5
406
100
AcDbEntity
  8
0
100
AcDbPolyline
 90
     3
 70
     0
 43
0.200000
 10
50.125000
 20
170.800000
 10
49.150000
 20
172.400000
 10
48.200000
 20
170.800000
  0
LWPOLYLINE
  5
40f
100
AcDbEntity
  8
0
100
AcDbPolyline
 90
     3
 70
     0
 43
0.200000
 10
48.200000
 20
165.100000
 10
49.150000
 20
163.500000
 10
50.125000
 20
165.100000
  0
LINE
  5
418
100
AcDbEntity
  8
0
370
    20
100
AcDbLine
 10
49.150000
 20
227.275000
 11
49.150000
 21
218.075000
  0
LWPOLYLINE
  5
41b
100
AcDbEntity
  8
0
100
AcDbPolyline
 90
     3
 70
     0
 43
0.200000
 10
50.125000
 20
225.700000
 10
49.150000
 20
227.275000
 10
48.200000
 20
225.700000
  0
LINE
  5
424
100
AcDbEntity
  8
0
370
    20
100
AcDbLine
 10
49.150000
 20
203.800000
 11
49.150000
 21
216.800000
  0
LWPOLYLINE
  5
427
100
AcDbEntity
  8
0
100
AcDbPolyline
 90
     3
 70
     0
 43
0.200000
 10
48.200000
 20
205.375000
 10
49.150000
 20
203.800000
 10
50.125000
 20
205.375000
  0
MTEXT
  5
430
100
AcDbEntity
  8
0
100
AcDbMText
 10
8.400000
 20
270.525000
 40
1.856250
 41
4.455000
 71
     1
 72
     5
  1
\fＭＳ ゴシック|b0|i0|c128|p49;\T1.8854;①
 44
1.226497
 73
     1
  7
BIGFONT
  0
MTEXT
  5
433
100
AcDbEntity
  8
0
100
AcDbMText
 10
16.975000
 20
259.750000
 40
1.856250
 41
4.455000
 71
     1
 72
     5
  1
\fＭＳ ゴシック|b0|i0|c128|p49;\T1.8854;②
 44
1.226497
 73
     1
  7
BIGFONT
  0
MTEXT
  5
436
100
AcDbEntity
  8
0
100
AcDbMText
 10
22.375000
 20
244.825000
 40
1.856250
 41
4.455000
 71
     1
 72
     5
  1
\fＭＳ ゴシック|b0|i0|c128|p49;\T1.8854;③
 44
1.226497
 73
     1
  7
BIGFONT
  0
MTEXT
  5
439
100
AcDbEntity
  8
0
100
AcDbMText
 10
18.875000
 20
239.750000
 40
1.856250
 41
4.455000
 71
     1
 72
     5
  1
\fＭＳ ゴシック|b0|i0|c128|p49;\T1.8854;④
 44
1.226497
 73
     1
  7
BIGFONT
  0
MTEXT
  5
43c
100
AcDbEntity
  8
0
100
AcDbMText
 10
30.625000
 20
232.150000
 40
1.856250
 41
4.455000
 71
     1
 72
     5
  1
\fＭＳ ゴシック|b0|i0|c128|p49;\T1.8854;⑤
 44
1.226497
 73
     1
  7
BIGFONT
  0
MTEXT
  5
43f
100
AcDbEntity
  8
0
100
AcDbMText
 10
24.275000
 20
169.950000
 40
1.856250
 41
4.455000
 71
     1
 72
     5
  1
\fＭＳ ゴシック|b0|i0|c128|p49;\T1.8854;⑥
 44
1.226497
 73
     1
  7
BIGFONT
  0
MTEXT
  5
442
100
AcDbEntity
  8
0
100
AcDbMText
 10
45.250000
 20
-542.000000
 40
2.475000
 41
6.682500
 71
     1
 72
     5
  1
\fＭＳ ゴシック|b0|i0|c128|p49;\T0.9100;200
 44
0.987879
 73
     1
 11
0.0000000000000000
 21
1.000000
 31
0.000000
  7
BIGFONT
  0
MTEXT
  5
445
100
AcDbEntity
  8
0
100
AcDbMText
 10
45.250000
 20
-542.000000
 40
2.475000
 41
6.682500
 71
     1
 72
     5
  1
\fＭＳ ゴシック|b0|i0|c128|p49;\T0.9100;800
 44
0.987879
 73
     1
 11
0.0000000000000000
 21
1.000000
 31
0.000000
  7
BIGFONT
  0
MTEXT
  5
448
100
AcDbEntity
  8
0
100
AcDbMText
 10
45.575000
 20
-542.000000
 40
2.475000
 41
8.910000
 71
     1
 72
     5
  1
\fＭＳ ゴシック|b0|i0|c128|p49;\T0.9100;1000
 44
0.987879
 73
     1
 11
0.0000000000000000
 21
1.000000
 31
0.000000
  7
BIGFONT
  0
MTEXT
  5
44b
100
AcDbEntity
  8
0
100
AcDbMText
 10
44.925000
 20
-542.000000
 40
2.475000
 41
17.820000
 71
     1
 72
     5
  1
\fＭＳ ゴシック|b0|i0|c128|p49;\T1.0200;1000×ｎ
 44
0.987879
 73
     1
 11
0.0000000000000000
 21
1.000000
 31
0.000000
  7
BIGFONT
  0
MTEXT
  5
44e
100
AcDbEntity
  8
0
100
AcDbMText
 10
12.250000
 20
-542.000000
 40
2.475000
 41
4.455000
 71
     1
 72
     5
  1
\fＭＳ ゴシック|b0|i0|c128|p49;\T0.9100;40
 44
0.987879
 73
     1
 11
0.0000000000000000
 21
1.000000
 31
0.000000
  7
BIGFONT
  0
MTEXT
  5
451
100
AcDbEntity
  8
0
100
AcDbMText
 10
12.250000
 20
-542.000000
 40
2.475000
 41
6.682500
 71
     1
 72
     5
  1
\fＭＳ ゴシック|b0|i0|c128|p49;\T0.9100;102
 44
0.981818
 73
     1
 11
0.0000000000000000
 21
1.000000
 31
0.000000
  7
BIGFONT
  0
MTEXT
  5
454
100
AcDbEntity
  8
0
100
AcDbMText
 10
9.050000
 20
164.575000
 40
1.856250
 41
20.047500
 71
     1
 72
     5
  1
\fＭＳ ゴシック|b0|i0|c128|p49;\T1.8854;(単位;mm)
 44
1.226497
 73
     1
  7
BIGFONT
  0
LINE
  5
457
100
AcDbEntity
  8
0
  6
DASHDOT
 62
     7
370
    20
100
AcDbLine
 10
28.550000
 20
216.800000
 11
28.550000
 21
160.025000
  0
MTEXT
  5
45a
100
AcDbEntity
  8
0
100
AcDbMText
 10
61.700000
 20
275.600000
 40
1.856250
 41
24.502500
 71
     1
 72
     5
  1
\fＭＳ ゴシック|b0|i0|c128|p49;\T1.8854;① ハンドル
 44
1.226497
 73
     1
  7
BIGFONT
  0
MTEXT
  5
45d
100
AcDbEntity
  8
0
100
AcDbMText
 10
61.700000
 20
270.850000
 40
1.856250
 41
20.047500
 71
     1
 72
     5
  1
\fＭＳ ゴシック|b0|i0|c128|p49;\T1.8854;② おもり
 44
1.226497
 73
     1
  7
BIGFONT
  0
MTEXT
  5
460
100
AcDbEntity
  8
0
100
AcDbMText
 10
61.700000
 20
261.325000
 40
1.856250
 41
49.005000
 71
     1
 72
     5
  1
\fＭＳ ゴシック|b0|i0|c128|p49;\T1.8854;③ 載荷用クランプ(5kg)
 44
1.226497
 73
     1
  7
BIGFONT
  0
MTEXT
  5
463
100
AcDbEntity
  8
0
100
AcDbMText
 10
61.700000
 20
256.575000
 40
1.856250
 41
20.047500
 71
     1
 72
     5
  1
\fＭＳ ゴシック|b0|i0|c128|p49;\T1.8854;④ 底　板
 44
1.226497
 73
     1
  7
BIGFONT
  0
MTEXT
  5
466
100
AcDbEntity
  8
0
100
AcDbMText
 10
61.700000
 20
267.675000
 40
1.856250
 41
53.460000
 71
     1
 72
     5
  1
\fＭＳ ゴシック|b0|i0|c128|p49;\T1.8854;　 (10kg×2個、25kg×3個)
 44
1.226497
 73
     1
  7
BIGFONT
  0
MTEXT
  5
469
100
AcDbEntity
  8
0
100
AcDbMText
 10
61.700000
 20
243.250000
 40
1.856250
 41
31.185000
 71
     1
 72
     5
  1
\fＭＳ ゴシック|b0|i0|c128|p49;\T1.8854;　 (全長200mm、
 44
1.226497
 73
     1
  7
BIGFONT
  0
MTEXT
  5
46c
100
AcDbEntity
  8
0
100
AcDbMText
 10
61.700000
 20
239.750000
 40
1.856250
 41
55.687500
 71
     1
 72
     5
  1
\fＭＳ ゴシック|b0|i0|c128|p49;\T1.8854;    右ねじれ最大径33.3mm)
 44
1.226497
 73
     1
  7
BIGFONT
  0
LINE
  5
46f
100
AcDbEntity
  8
0
  6
DASHDOT
 62
     7
370
    20
100
AcDbLine
 10
81.200000
 20
228.875000
 11
81.200000
 21
160.325000
  0
LWPOLYLINE
  5
472
100
AcDbEntity
  8
0
100
AcDbPolyline
 90
     4
 70
     1
 43
0.400000
 10
78.975000
 20
224.425000
 10
78.975000
 20
217.450000
 10
83.100000
 20
217.450000
 10
83.100000
 20
224.425000
  0
LWPOLYLINE
  5
47d
100
AcDbEntity
  8
0
100
AcDbPolyline
 90
     4
 70
     0
 43
0.400000
 10
78.675000
 20
217.450000
 10
78.350000
 20
217.450000
 10
77.725000
 20
215.225000
 10
76.450000
 20
211.100000
  0
LINE
  5
488
100
AcDbEntity
  8
0
  6
DOT
 62
     7
370
    20
100
AcDbLine
 10
76.025000
 20
209.750000
 11
77.075000
 21
205.700000
  0
LINE
  5
48b
100
AcDbEntity
  8
0
  6
DOT
 62
     7
370
    20
100
AcDbLine
 10
77.075000
 20
205.700000
 11
78.975000
 21
201.900000
  0
LINE
  5
48e
100
AcDbEntity
  8
0
  6
DOT
 62
     7
370
    20
100
AcDbLine
 10
78.975000
 20
201.900000
 11
81.200000
 21
199.675000
  0
LINE
  5
491
100
AcDbEntity
  8
0
  6
DOT
 62
     7
370
    20
100
AcDbLine
 10
81.200000
 20
199.675000
 11
83.750000
 21
197.150000
  0
LINE
  5
494
100
AcDbEntity
  8
0
  6
DOT
 62
     7
370
    20
100
AcDbLine
 10
83.750000
 20
197.150000
 11
85.325000
 21
194.600000
  0
LINE
  5
497
100
AcDbEntity
  8
0
  6
DOT
 62
     7
370
    20
100
AcDbLine
 10
77.075000
 20
205.700000
 11
76.125000
 21
209.825000
  0
LINE
  5
49a
100
AcDbEntity
  8
0
  6
DOT
 62
     7
370
    20
100
AcDbLine
 10
77.075000
 20
205.700000
 11
78.975000
 21
201.900000
  0
LINE
  5
49d
100
AcDbEntity
  8
0
  6
DOT
 62
     7
370
    20
100
AcDbLine
 10
78.975000
 20
201.900000
 11
81.200000
 21
199.675000
  0
LINE
  5
4a0
100
AcDbEntity
  8
0
  6
DOT
 62
     7
370
    20
100
AcDbLine
 10
81.200000
 20
199.675000
 11
83.750000
 21
197.150000
  0
LINE
  5
4a3
100
AcDbEntity
  8
0
  6
DOT
 62
     7
370
    20
100
AcDbLine
 10
83.750000
 20
197.150000
 11
85.325000
 21
194.600000
  0
LINE
  5
4a6
100
AcDbEntity
  8
0
  6
DOT
 62
     7
370
    20
100
AcDbLine
 10
85.325000
 20
194.600000
 11
85.650000
 21
193.325000
  0
LWPOLYLINE
  5
4a9
100
AcDbEntity
  8
0
100
AcDbPolyline
 90
     4
 70
     0
 43
0.400000
 10
83.425000
 20
217.450000
 10
83.750000
 20
217.450000
 10
85.325000
 20
213.625000
 10
86.275000
 20
210.450000
  0
LINE
  5
4b4
100
AcDbEntity
  8
0
370
    40
100
AcDbLine
 10
85.950000
 20
209.200000
 11
85.325000
 21
205.700000
  0
LINE
  5
4b7
100
AcDbEntity
  8
0
370
    40
100
AcDbLine
 10
85.325000
 20
205.700000
 11
83.425000
 21
201.900000
  0
LINE
  5
4ba
100
AcDbEntity
  8
0
370
    40
100
AcDbLine
 10
83.425000
 20
201.900000
 11
81.200000
 21
199.675000
  0
LINE
  5
4bd
100
AcDbEntity
  8
0
370
    40
100
AcDbLine
 10
81.200000
 20
199.675000
 11
78.675000
 21
197.150000
  0
LINE
  5
4c0
100
AcDbEntity
  8
0
370
    40
100
AcDbLine
 10
78.675000
 20
197.150000
 11
77.075000
 21
194.600000
  0
LINE
  5
4c3
100
AcDbEntity
  8
0
370
    40
100
AcDbLine
 10
85.950000
 20
209.200000
 11
85.325000
 21
205.700000
  0
LINE
  5
4c6
100
AcDbEntity
  8
0
370
    40
100
AcDbLine
 10
85.325000
 20
205.700000
 11
83.425000
 21
201.900000
  0
LINE
  5
4c9
100
AcDbEntity
  8
0
370
    40
100
AcDbLine
 10
83.425000
 20
201.900000
 11
81.200000
 21
199.675000
  0
LINE
  5
4cc
100
AcDbEntity
  8
0
370
    40
100
AcDbLine
 10
81.200000
 20
199.675000
 11
78.675000
 21
197.150000
  0
LINE
  5
4cf
100
AcDbEntity
  8
0
370
    40
100
AcDbLine
 10
78.675000
 20
197.150000
 11
76.750000
 21
193.650000
  0
LINE
  5
4d2
100
AcDbEntity
  8
0
  6
DOT
 62
     7
370
    20
100
AcDbLine
 10
77.075000
 20
194.600000
 11
76.750000
 21
193.325000
  0
LWPOLYLINE
  5
4d5
100
AcDbEntity
  8
0
100
AcDbPolyline
 90
     4
 70
     0
 43
0.400000
 10
81.200000
 20
215.550000
 10
78.975000
 20
215.225000
 10
77.725000
 20
213.625000
 10
76.125000
 20
210.775000
  0
LWPOLYLINE
  5
4e0
100
AcDbEntity
  8
0
100
AcDbPolyline
 90
     4
 70
     0
 43
0.400000
 10
81.200000
 20
215.550000
 10
83.425000
 20
215.225000
 10
84.700000
 20
213.625000
 10
85.950000
 20
211.425000
  0
LWPOLYLINE
  5
4eb
100
AcDbEntity
  8
0
100
AcDbPolyline
 90
     5
 70
     0
 43
0.400000
 10
76.450000
 20
211.725000
 10
75.175000
 20
206.975000
 10
74.550000
 20
203.475000
 10
75.500000
 20
195.875000
 10
76.750000
 20
193.325000
  0
LINE
  5
4f8
100
AcDbEntity
  8
0
370
    40
100
AcDbLine
 10
85.950000
 20
209.200000
 11
85.325000
 21
205.700000
  0
LINE
  5
4fb
100
AcDbEntity
  8
0
370
    40
100
AcDbLine
 10
85.325000
 20
205.700000
 11
86.275000
 21
211.100000
  0
LINE
  5
4fe
100
AcDbEntity
  8
0
  6
DOT
 62
     7
370
    20
100
AcDbLine
 10
85.325000
 20
194.600000
 11
85.650000
 21
193.325000
  0
LWPOLYLINE
  5
501
100
AcDbEntity
  8
0
100
AcDbPolyline
 90
     5
 70
     0
 43
0.400000
 10
86.275000
 20
210.775000
 10
87.875000
 20
205.075000
 10
87.550000
 20
200.000000
 10
86.925000
 20
195.875000
 10
85.650000
 20
193.325000
  0
LWPOLYLINE
  5
50e
100
AcDbEntity
  8
0
100
AcDbPolyline
 90
     4
 70
     0
 43
0.400000
 10
76.750000
 20
193.325000
 10
76.125000
 20
190.150000
 10
76.450000
 20
187.625000
 10
77.725000
 20
184.775000
  0
LWPOLYLINE
  5
519
100
AcDbEntity
  8
0
100
AcDbPolyline
 90
     4
 70
     0
 43
0.400000
 10
77.725000
 20
184.775000
 10
77.075000
 20
181.600000
 10
77.400000
 20
179.375000
 10
78.675000
 20
177.150000
  0
LWPOLYLINE
  5
524
100
AcDbEntity
  8
0
100
AcDbPolyline
 90
     3
 70
     0
 43
0.400000
 10
78.675000
 20
177.150000
 10
78.675000
 20
173.025000
 10
79.925000
 20
169.525000
  0
LINE
  5
52d
100
AcDbEntity
  8
0
  6
DOT
 62
     7
370
    20
100
AcDbLine
 10
85.325000
 20
194.600000
 11
85.650000
 21
193.325000
  0
LWPOLYLINE
  5
530
100
AcDbEntity
  8
0
100
AcDbPolyline
 90
     4
 70
     0
 43
0.400000
 10
85.650000
 20
193.325000
 10
86.275000
 20
190.150000
 10
85.950000
 20
187.625000
 10
84.700000
 20
184.775000
  0
LWPOLYLINE
  5
53b
100
AcDbEntity
  8
0
100
AcDbPolyline
 90
     4
 70
     0
 43
0.400000
 10
84.700000
 20
184.775000
 10
85.325000
 20
181.600000
 10
85.000000
 20
179.375000
 10
83.750000
 20
177.150000
  0
LWPOLYLINE
  5
546
100
AcDbEntity
  8
0
100
AcDbPolyline
 90
     3
 70
     0
 43
0.400000
 10
83.750000
 20
177.150000
 10
83.750000
 20
173.025000
 10
82.475000
 20
169.525000
  0
LWPOLYLINE
  5
54f
100
AcDbEntity
  8
0
100
AcDbPolyline
 90
     5
 70
     0
 43
0.400000
 10
85.650000
 20
193.325000
 10
83.750000
 20
190.475000
 10
81.200000
 20
187.925000
 10
79.300000
 20
186.675000
 10
77.725000
 20
184.775000
  0
LWPOLYLINE
  5
55c
100
AcDbEntity
  8
0
  6
DOT
 62
     7
100
AcDbPolyline
 90
     5
 70
     0
 43
0.200000
 10
76.750000
 20
193.325000
 10
78.675000
 20
190.475000
 10
81.200000
 20
187.925000
 10
83.100000
 20
186.675000
 10
84.700000
 20
184.775000
  0
LWPOLYLINE
  5
569
100
AcDbEntity
  8
0
100
AcDbPolyline
 90
     4
 70
     0
 43
0.400000
 10
84.375000
 20
184.775000
 10
82.475000
 20
182.550000
 10
79.925000
 20
179.050000
 10
78.675000
 20
176.525000
  0
LWPOLYLINE
  5
574
100
AcDbEntity
  8
0
  6
DOT
 62
     7
100
AcDbPolyline
 90
     4
 70
     0
 43
0.200000
 10
78.025000
 20
184.775000
 10
79.925000
 20
182.550000
 10
82.475000
 20
179.050000
 10
83.750000
 20
176.525000
  0
LWPOLYLINE
  5
57f
100
AcDbEntity
  8
0
100
AcDbPolyline
 90
     4
 70
     0
 43
0.400000
 10
83.750000
 20
176.825000
 10
82.150000
 20
174.925000
 10
80.575000
 20
171.450000
 10
79.925000
 20
169.850000
  0
LWPOLYLINE
  5
58a
100
AcDbEntity
  8
0
100
AcDbPolyline
 90
     4
 70
     0
 43
0.400000
 10
79.925000
 20
169.850000
 10
79.625000
 20
167.625000
 10
79.925000
 20
165.425000
 10
81.200000
 20
163.200000
  0
LWPOLYLINE
  5
595
100
AcDbEntity
  8
0
  6
DOT
 62
     7
100
AcDbPolyline
 90
     4
 70
     0
 43
0.200000
 10
78.675000
 20
176.825000
 10
80.250000
 20
174.925000
 10
81.850000
 20
171.450000
 10
82.475000
 20
169.850000
  0
LWPOLYLINE
  5
5a0
100
AcDbEntity
  8
0
100
AcDbPolyline
 90
     4
 70
     0
 43
0.400000
 10
82.475000
 20
169.850000
 10
82.800000
 20
167.625000
 10
82.475000
 20
165.425000
 10
81.200000
 20
163.200000
  0
LINE
  5
5ab
100
AcDbEntity
  8
0
  6
DOT
 62
     7
370
    20
100
AcDbLine
 10
79.625000
 20
224.425000
 11
79.625000
 21
217.450000
  0
LINE
  5
5ae
100
AcDbEntity
  8
0
  6
DOT
 62
     7
370
    20
100
AcDbLine
 10
82.475000
 20
224.425000
 11
82.475000
 21
217.450000
  0
MTEXT
  5
5b1
100
AcDbEntity
  8
0
100
AcDbMText
 10
89.975000
 20
-542.000000
 40
2.475000
 41
6.682500
 71
     1
 72
     5
  1
\fＭＳ ゴシック|b0|i0|c128|p49;\T0.9100;200
 44
0.987879
 73
     1
 11
0.0000000000000000
 21
1.000000
 31
0.000000
  7
BIGFONT
  0
MTEXT
  5
5b4
100
AcDbEntity
  8
0
100
AcDbMText
 10
77.575000
 20
207.400000
 40
2.475000
 41
11.137500
 71
     1
 72
     5
  1
\fＭＳ ゴシック|b0|i0|c128|p49;\T1.0200;φmax
 44
0.987879
 73
     1
  7
BIGFONT
  0
MTEXT
  5
5b7
100
AcDbEntity
  8
0
100
AcDbMText
 10
78.525000
 20
203.275000
 40
2.475000
 41
8.910000
 71
     1
 72
     5
  1
\fＭＳ ゴシック|b0|i0|c128|p49;\T0.9100;33.3
 44
0.987879
 73
     1
  7
BIGFONT
  0
LINE
  5
5ba
100
AcDbEntity
  8
0
370
    20
100
AcDbLine
 10
84.050000
 20
224.425000
 11
98.325000
 21
224.425000
  0
LINE
  5
5bd
100
AcDbEntity
  8
0
370
    20
100
AcDbLine
 10
84.700000
 20
217.450000
 11
98.975000
 21
217.450000
  0
LINE
  5
5c0
100
AcDbEntity
  8
0
370
    20
100
AcDbLine
 10
82.150000
 20
163.200000
 11
99.925000
 21
163.200000
  0
LINE
  5
5c3
100
AcDbEntity
  8
0
370
    20
100
AcDbLine
 10
94.200000
 20
217.450000
 11
94.200000
 21
163.200000
  0
LWPOLYLINE
  5
5c6
100
AcDbEntity
  8
0
100
AcDbPolyline
 90
     3
 70
     0
 43
0.200000
 10
95.175000
 20
215.850000
 10
94.200000
 20
217.450000
 10
93.250000
 20
215.850000
  0
LWPOLYLINE
  5
5cf
100
AcDbEntity
  8
0
100
AcDbPolyline
 90
     3
 70
     0
 43
0.200000
 10
93.250000
 20
164.775000
 10
94.200000
 20
163.200000
 10
95.175000
 20
164.775000
  0
LINE
  5
5d8
100
AcDbEntity
  8
0
370
    20
100
AcDbLine
 10
94.200000
 20
217.450000
 11
94.200000
 21
224.425000
  0
LWPOLYLINE
  5
5db
100
AcDbEntity
  8
0
100
AcDbPolyline
 90
     3
 70
     0
 43
0.200000
 10
93.250000
 20
219.025000
 10
94.200000
 20
217.450000
 10
95.175000
 20
219.025000
  0
LWPOLYLINE
  5
5e4
100
AcDbEntity
  8
0
100
AcDbPolyline
 90
     3
 70
     0
 43
0.200000
 10
95.175000
 20
222.825000
 10
94.200000
 20
224.425000
 10
93.250000
 20
222.825000
  0
LINE
  5
5ed
100
AcDbEntity
  8
0
370
    20
100
AcDbLine
 10
87.875000
 20
203.800000
 11
74.550000
 21
203.800000
  0
LWPOLYLINE
  5
5f0
100
AcDbEntity
  8
0
100
AcDbPolyline
 90
     3
 70
     0
 43
0.200000
 10
86.275000
 20
202.850000
 10
87.875000
 20
203.800000
 10
86.275000
 20
204.750000
  0
LWPOLYLINE
  5
5f9
100
AcDbEntity
  8
0
100
AcDbPolyline
 90
     3
 70
     0
 43
0.200000
 10
76.125000
 20
204.750000
 10
74.550000
 20
203.800000
 10
76.125000
 20
202.850000
  0
MTEXT
  5
602
100
AcDbEntity
  8
0
100
AcDbMText
 10
78.200000
 20
234.050000
 40
2.475000
 41
8.910000
 71
     1
 72
     5
  1
\fＭＳ ゴシック|b0|i0|c128|p49;\T1.0200;φ19
 44
0.987879
 73
     1
  7
BIGFONT
  0
LINE
  5
605
100
AcDbEntity
  8
0
370
    20
100
AcDbLine
 10
73.900000
 20
228.225000
 11
78.350000
 21
228.225000
  0
LWPOLYLINE
  5
608
100
AcDbEntity
  8
0
100
AcDbPolyline
 90
     3
 70
     0
 43
0.200000
 10
76.750000
 20
227.275000
 10
78.350000
 20
228.225000
 10
76.750000
 20
229.175000
  0
LINE
  5
611
100
AcDbEntity
  8
0
370
    20
100
AcDbLine
 10
83.750000
 20
228.225000
 11
88.175000
 21
228.225000
  0
LWPOLYLINE
  5
614
100
AcDbEntity
  8
0
100
AcDbPolyline
 90
     3
 70
     0
 43
0.200000
 10
85.325000
 20
229.175000
 10
83.750000
 20
228.225000
 10
85.325000
 20
227.275000
  0
LINE
  5
61d
100
AcDbEntity
  8
0
370
    20
100
AcDbLine
 10
78.350000
 20
217.450000
 11
78.350000
 21
230.775000
  0
LINE
  5
620
100
AcDbEntity
  8
0
370
    20
100
AcDbLine
 10
83.750000
 20
217.450000
 11
83.750000
 21
230.775000
  0
MTEXT
  5
623
100
AcDbEntity
  8
0
100
AcDbMText
 10
61.700000
 20
251.800000
 40
1.856250
 41
62.370000
 71
     1
 72
     5
  1
\fＭＳ ゴシック|b0|i0|c128|p49;\T1.8854;⑤ ロッド(φ19mm、長さ1000mm)
 44
1.226497
 73
     1
  7
BIGFONT
  0
MTEXT
  5
626
100
AcDbEntity
  8
0
100
AcDbMText
 10
93.425000
 20
229.925000
 40
1.856250
 41
20.047500
 71
     1
 72
     5
  1
\fＭＳ ゴシック|b0|i0|c128|p49;\T1.8854;(単位;mm)
 44
1.226497
 73
     1
  7
BIGFONT
  0
MTEXT
  5
629
100
AcDbEntity
  8
0
100
AcDbMText
 10
61.700000
 20
246.725000
 40
1.856250
 41
66.825000
 71
     1
 72
     5
  1
\fＭＳ ゴシック|b0|i0|c128|p49;\T1.8854;⑥ スクリューポイント、下図参照
 44
1.226497
 73
     1
  7
BIGFONT
  0
LINE
  5
62c
100
AcDbEntity
  8
0
370
    20
100
AcDbLine
 10
43.775000
 20
217.125000
 11
44.725000
 21
218.075000
  0
LINE
  5
62f
100
AcDbEntity
  8
0
370
    20
100
AcDbLine
 10
48.200000
 20
217.450000
 11
49.800000
 21
218.400000
  0
LINE
  5
632
100
AcDbEntity
  8
0
370
    20
100
AcDbLine
 10
43.775000
 20
215.850000
 11
44.725000
 21
216.800000
  0
LINE
  5
635
100
AcDbEntity
  8
0
370
    20
100
AcDbLine
 10
48.200000
 20
216.175000
 11
49.800000
 21
217.125000
  0
MTEXT
  5
638
100
AcDbEntity
  8
0
100
AcDbMText
 10
38.275000
 20
-542.000000
 40
2.475000
 41
6.682500
 71
     1
 72
     5
  1
\fＭＳ ゴシック|b0|i0|c128|p49;\T0.9100;386
 44
0.987879
 73
     1
 11
0.0000000000000000
 21
1.000000
 31
0.000000
  7
BIGFONT
  0
MTEXT
  5
63b
100
AcDbEntity
  8
0
100
AcDbMText
 10
29.225000
 20
158.450000
 40
2.381250
 41
102.870000
 71
     1
 72
     5
  1
\fＭＳ 明朝|b0|i0|c128|p17;\T1.0200;※全地連ボーリングハンドブックによる
 44
1.034881
 73
     1
  7
BIGFONT
  0
MTEXT
  5
63e
100
AcDbEntity
  8
0
100
AcDbMText
 10
13.025000
 20
248.375000
 40
2.475000
 41
4.455000
 71
     1
 72
     5
  1
\fＭＳ ゴシック|b0|i0|c128|p49;\T0.9100;40
 44
1.284848
 73
     1
 11
0.0000000000000000
 21
1.000000
 31
0.000000
  7
BIGFONT
  0
MTEXT
  5
641
100
AcDbEntity
  8
0
100
AcDbMText
 10
38.425000
 20
254.450000
 40
2.475000
 41
6.682500
 71
     1
 72
     5
  1
\fＭＳ ゴシック|b0|i0|c128|p49;\T0.9100;386
 44
1.284848
 73
     1
 11
0.0000000000000000
 21
1.000000
 31
0.000000
  7
BIGFONT
  0
MTEXT
  5
644
100
AcDbEntity
  8
0
100
AcDbMText
 10
13.175000
 20
261.100000
 40
2.475000
 41
6.682500
 71
     1
 72
     5
  1
\fＭＳ ゴシック|b0|i0|c128|p49;\T0.9100;102
 44
1.284848
 73
     1
 11
0.0000000000000000
 21
1.000000
 31
0.000000
  7
BIGFONT
  0
MTEXT
  5
647
100
AcDbEntity
  8
0
100
AcDbMText
 10
45.975000
 20
245.750000
 40
2.475000
 41
8.910000
 71
     1
 72
     5
  1
\fＭＳ ゴシック|b0|i0|c128|p49;\T0.9100;1000
 44
1.284848
 73
     1
 11
0.0000000000000000
 21
1.000000
 31
0.000000
  7
BIGFONT
  0
MTEXT
  5
64a
100
AcDbEntity
  8
0
100
AcDbMText
 10
45.975000
 20
185.675000
 40
2.475000
 41
6.682500
 71
     1
 72
     5
  1
\fＭＳ ゴシック|b0|i0|c128|p49;\T0.9100;800
 44
1.284848
 73
     1
 11
0.0000000000000000
 21
1.000000
 31
0.000000
  7
BIGFONT
  0
MTEXT
  5
64d
100
AcDbEntity
  8
0
100
AcDbMText
 10
45.450000
 20
166.225000
 40
2.475000
 41
6.682500
 71
     1
 72
     5
  1
\fＭＳ ゴシック|b0|i0|c128|p49;\T0.9100;200
 44
1.284848
 73
     1
 11
0.0000000000000000
 21
1.000000
 31
0.000000
  7
BIGFONT
  0
MTEXT
  5
650
100
AcDbEntity
  8
0
100
AcDbMText
 10
88.825000
 20
218.750000
 40
2.475000
 41
4.455000
 71
     1
 72
     5
  1
\fＭＳ ゴシック|b0|i0|c128|p49;\T0.9100;20
 44
1.284848
 73
     1
 11
0.0000000000000000
 21
1.000000
 31
0.000000
  7
BIGFONT
  0
MTEXT
  5
653
100
AcDbEntity
  8
0
100
AcDbMText
 10
91.225000
 20
190.300000
 40
2.475000
 41
6.682500
 71
     1
 72
     5
  1
\fＭＳ ゴシック|b0|i0|c128|p49;\T0.9100;200
 44
1.284848
 73
     1
 11
0.0000000000000000
 21
1.000000
 31
0.000000
  7
BIGFONT
  0
ENDSEC
  0
SECTION
  2
OBJECTS
  0
DICTIONARY
  5
65e
100
AcDbDictionary
281
     1
  3
ACAD_COLOR
350
65f
  3
ACAD_GROUP
350
660
  3
ACAD_LAYOUT
350
661
  3
ACAD_MATERIAL
350
662
  3
ACAD_MLINESTYLE
350
663
  3
CONTENTDICTIONARY
350
669
  0
DICTIONARY
  5
65f
102
{ACAD_REACTORS
330
65e
102
}
330
65e
100
AcDbDictionary
281
     1
  0
DICTIONARY
  5
660
102
{ACAD_REACTORS
330
65e
102
}
330
65e
100
AcDbDictionary
281
     1
  3
Layout1
350
66a
  3
Layout2
350
66b
  3
Model
350
6ae
  0
DICTIONARY
  5
661
102
{ACAD_REACTORS
330
65e
102
}
330
65e
100
AcDbDictionary
281
     1
  0
DICTIONARY
  5
662
102
{ACAD_REACTORS
330
65e
102
}
330
65e
100
AcDbDictionary
281
     1
  0
DICTIONARY
  5
663
102
{ACAD_REACTORS
330
65e
102
}
330
65e
100
AcDbDictionary
281
     1
  3
Standard
350
66c
  0
DICTIONARY
  5
664
102
{ACAD_REACTORS
330
65e
102
}
330
65e
100
AcDbDictionary
281
     1
  0
ACDBDICTIONARYWDFLT
  5
665
102
{ACAD_REACTORS
330
65e
102
}
330
65e
100
AcDbDictionary
281
     1
  3
Normal
350
6af
100
AcDbDictionaryWithDefault
340
6af
  0
DICTIONARY
  5
666
102
{ACAD_REACTORS
330
65e
102
}
330
65e
100
AcDbDictionary
281
     1
  3
Standard
350
6b0
  0
DICTIONARY
  5
667
102
{ACAD_REACTORS
330
65e
102
}
330
65e
100
AcDbDictionary
281
     1
  3
CEPSNTYPE
350
66e
  3
FINGERPRINTGUID
350
66f
  3
HYPERLINKBASE
350
670
  3
INSUNITS
350
671
  3
LAYOUTDICT
350
672
  3
LWETCUNION
350
673
  3
PLOTSETDICT
350
674
  3
PLOTSTYLNAMDICT
350
675
  3
PSVPSCALE
350
676
  3
PUCSBASE
350
677
  3
PUCSORGBACK
350
678
  3
PUCSORGBOTTOM
350
679
  3
PUCSORGFRONT
350
67a
  3
PUCSORGLEFT
350
67b
  3
PUCSORGRIGHT
350
67c
  3
PUCSORGTOP
350
67d
  3
PUCSORTHOREF
350
67e
  3
PUCSORTHOVIEW
350
67f
  3
STYLESHEET
350
680
  3
TSTACKALIGN
350
681
  3
TSTACKSIZE
350
682
  3
UCSBASE
350
683
  3
UCSORGBACK
350
684
  3
UCSORGBOTTOM
350
685
  3
UCSORGFRONT
350
686
  3
UCSORGLEFT
350
687
  3
UCSORGRIGHT
350
688
  3
UCSORGTOP
350
689
  3
UCSORTHOREF
350
68a
  3
UCSORTHOVIEW
350
68b
  3
VERSIONGUID
350
68c
  0
DICTIONARY
  5
668
102
{ACAD_REACTORS
330
65e
102
}
330
65e
100
AcDbDictionary
281
     1
  3
CTABLESTYLE
350
68d
  3
DIMASSOC
350
68e
  3
HIDETEXT
350
68f
  3
PROJECTNAME
350
690
  0
LAYOUT
  5
669
102
{ACAD_XDICTIONARY
360
974
102
}
102
{ACAD_REACTORS
330
65f
102
}
330
65f
100
AcDbPlotSettings
  1

  2

  4

  6

 40
0.000000
 41
0.000000
 42
0.000000
 43
0.000000
 44
0.000000
 45
0.000000
 46
0.000000
 47
0.000000
 48
0.000000
 49
0.000000
140
0.000000
141
0.000000
142
1.000000
143
1.000000
 70
   688
 72
     0
 73
     0
 74
     5
  7

 75
    16
147
1.000000
148
0.000000
149
0.000000
100
AcDbLayout
  1
Layout1
 70
     1
 71
     1
 10
0.000000
 20
0.000000
 11
197.100000
 21
283.100000
 12
0.000000
 22
0.000000
 32
0.000000
 14
100000000000000000000.000000
 24
100000000000000000000.000000
 34
100000000000000000000.000000
 15
-100000000000000000000.000000
 25
-100000000000000000000.000000
 35
-100000000000000000000.000000
146
0.000000
 13
0.000000
 23
0.000000
 33
0.000000
 16
1.000000
 26
0.000000
 36
0.000000
 17
0.000000
 27
1.000000
 37
0.000000
 76
     0
330
663
  0
LAYOUT
  5
66a
102
{ACAD_XDICTIONARY
360
976
102
}
102
{ACAD_REACTORS
330
65f
102
}
330
65f
100
AcDbPlotSettings
  1

  2

  4

  6

 40
0.000000
 41
0.000000
 42
0.000000
 43
0.000000
 44
0.000000
 45
0.000000
 46
0.000000
 47
0.000000
 48
0.000000
 49
0.000000
140
0.000000
141
0.000000
142
1.000000
143
1.000000
 70
   688
 72
     0
 73
     0
 74
     5
  7

 75
    16
147
1.000000
148
0.000000
149
0.000000
100
AcDbLayout
  1
Layout2
 70
     1
 71
     2
 10
0.000000
 20
0.000000
 11
197.100000
 21
283.100000
 12
0.000000
 22
0.000000
 32
0.000000
 14
0.000000
 24
0.000000
 34
0.000000
 15
0.000000
 25
0.000000
 35
0.000000
146
0.000000
 13
0.000000
 23
0.000000
 33
0.000000
 16
1.000000
 26
0.000000
 36
0.000000
 17
0.000000
 27
1.000000
 37
0.000000
 76
     0
330
66a
  0
LAYOUT
  5
66b
102
{ACAD_XDICTIONARY
360
978
102
}
102
{ACAD_REACTORS
330
65f
102
}
330
65f
100
AcDbPlotSettings
  1

  2

  4

  6

 40
0.000000
 41
0.000000
 42
0.000000
 43
0.000000
 44
0.000000
 45
0.000000
 46
0.000000
 47
0.000000
 48
0.000000
 49
0.000000
140
0.000000
141
0.000000
142
1.000000
143
1.000000
 70
  1712
 72
     0
 73
     0
 74
     0
  7

 75
    16
147
1.000000
148
0.000000
149
0.000000
100
AcDbLayout
  1
Model
 70
     1
 71
     0
 10
0.000000
 20
0.000000
 11
197.100000
 21
283.100000
 12
0.000000
 22
0.000000
 32
0.000000
 14
0.000000
 24
0.000000
 34
0.000000
 15
0.000000
 25
0.000000
 35
0.000000
146
0.000000
 13
0.000000
 23
0.000000
 33
0.000000
 16
1.000000
 26
0.000000
 36
0.000000
 17
0.000000
 27
1.000000
 37
0.000000
 76
     0
330
66b
  0
MLINESTYLE
  5
66c
102
{ACAD_REACTORS
330
66b
102
}
330
66b
100
AcDbMlineStyle
  2
STANDARD
 70
     0
  3
 
 62
   256
 51
90.000000
 52
90.000000
 71
     2
 49
0.500000
 62
   256
  6
BYLAYER
 49
-0.500000
 62
   256
  6
BYLAYER
  0
ACDBPLACEHOLDER
  5
66d
102
{ACAD_REACTORS
330
66c
102
}
330
66c
  0
DICTIONARY
  5
974
100
AcDbDictionary
280
     1
281
     1
  3
ACAD_XREC_ROUNDTRIP
360
975
  0
DICTIONARY
  5
976
100
AcDbDictionary
280
     1
281
     1
  3
ACAD_XREC_ROUNDTRIP
360
977
  0
DICTIONARY
  5
978
100
AcDbDictionary
280
     1
281
     1
  3
ACAD_XREC_ROUNDTRIP
360
979
  0
XRECORD
  5
975
102
{ACAD_REACTORS
330
974
102
}
330
974
100
AcDbXrecord
280
     1
102
SHADEPLOT
 70
     0
102
SHADEPLOTRESLEVEL
 70
     2
102
SHADEPLOTCUSTOMDPI
 70
   300
  0
XRECORD
  5
977
102
{ACAD_REACTORS
330
976
102
}
330
976
100
AcDbXrecord
280
     1
102
SHADEPLOT
 70
     0
102
SHADEPLOTRESLEVEL
 70
     2
102
SHADEPLOTCUSTOMDPI
 70
   300
  0
XRECORD
  5
979
102
{ACAD_REACTORS
330
978
102
}
330
978
100
AcDbXrecord
280
     1
102
SHADEPLOT
 70
     0
102
SHADEPLOTRESLEVEL
 70
     2
102
SHADEPLOTCUSTOMDPI
 70
   300
  0
ENDSEC
  0
EOF
